SONG: Again & Again
BAND: Taproot
ALBUM: Gift
TRANSCRIBED BY: Michael Johnson ([email protected])
DATE: 03/24/01



TUNING: tune your guitar as follows (A-D-G-C-F-A)


RIFF A:

A|---------------------------------|
F|---------------------------------|
C|---------------------------------|
G|---5-2-2-2-4--4--4--4-4-5-5-5-5--|
D|---5-2-2-2-4--4--4--4-4-5-5-5-5--|
A|---3-0-0-0-2--2--2--2-2-3-3-3-3--|

RIFF B:

A|---------------------------------|
F|---------------------------------|
C|---------------------------------|
G|---5-2-2-2-4----------4-5-5-5-5--|
D|---5-2-2-2-4----------4-5-5-5-5--|
A|---3-0-0-0-2----------2-3-3-3-3--|

RIFF C:

A|----------------------------------------|
F|----------------------------------------|
C|---129-9-9-9-9/11-11-11-11/12-12-12-12-|
G|----------------------------------------|
D|---107-7-7-7-7/-9--9--9--9/10-10-10-10-|
A|----------------------------------------|

RIFF D:

A|---------------------------------|
F|---------------------------------|
C|---------------------------------|
G|---5-2-2-2-4-x-x-x-x-4-5-5-5-5---|
D|---5-2-2-2-4-x-x-x-x-4-5-5-5-5---|
A|---3-0-0-0-2-x-x-x-x-2-3-3-3-3---|

RIFF E:
melodic chord
A|-----------------------------------------|-------------------|
F|-----------------------------------------|-------------------|
C|--11-11-11-------------------------------|-------------------|
G|--11-11-11-----117-12-12-12-12-12-12-12-|-14-14-14-14-14-14-|
D|---9--9--9-x-x-117-12-12-12-12-12-12-12-|-12-12-12-12-12-12-|
A|-----------x-x--95-10-10-10-10-10-10-10-|-10-10-10-10-10-10-|

RIFF F:

A|-------------------------------|
F|-------------------------------|
C|-------------------------12-11-|
G|--11-13-13-13-13---14-14-------|
D|---9/11-11-11-11-x-12-12-------|
A|-------------------------------|

RIFF G:

A|---------|
F|---------|
C|--11--11-|
G|--11--11-|
D|---9---9-|
A|---------|





Ваше мнение



Капча