Tantric - Revillusion
Tantric
Drop Db
Db, Ab, Db, Gb, Bb, Eb
Intro:
e--------------------------------------------------
b--------------------------------------------------
g--------------------------------------------------
d---0-------0---0-----------0-------0---0----------
a-----0---3-------0-----0-----0---3-------0-3b-0---
d-0-----3-----0-----3-5---0-----3-----0----------3-
Verse: 4x
e----------------------------
b----------------------------
g----------------------------
d---0-------0---0------------
a-----0---3-------0-----0----
d-0-----3-----0-----3-5------
then this
e----------------
b----------------
g----------------
d---0------------
a-----3----------
d-3-----3-5------

Chorus:
e--------------------------------
b--------------------------------
g--------------------------------
d--------------------------------
a-0-0--5------5------5-----------
d-0-0----6-5~---6-5~---6-5~------
Guitar solo w/ wah (play octave part twice)
e-------------------------------------------------------
b-15--15-15-15-x-13--13-13-13-13-x----------------------
g----------------------------------12-12-12-10-10-10-10-
d-12--12-12-12-x-10--10-10-10-10-x----------------------
a----------------------------------10-10-10--8--8--8--8-
d-------------------------------------------------------
e----------------------------------|---------------------------
b----------------------------------|-10----10---10----12-12-12-
g-12-12-12-12-10-10-10-10-10-12-12-|-10----10-x-10----12-12-12-
d----------------------------------|----12----x----10----------
a-10-10-10-10--8--8--8--8--8-10-10-|---------------------------
d----------------------------------|---------------------------
e-----------------------------------10-12-10-----10-13-10-
b-x-10-10-10-x-x----------x-x-x---------------------------
g-x-10-10-10-x-x-12p10----x-x-x-12b----------12b----------
d----------------------12---------------------------------
a---------------------------------------------------------
d---------------------------------------------------------
D5
e-----10-12-10-----10-13-10-------------------------
b---------------------------12p10----10-10-x-x------
g-12b----------12b----------12p10----10-10-x-x--10--
d---------------------------------12------------10--
a---------------------------------------------------
d---------------------------------------------------
Interlude:
e------------------------------
b------------------------------
g------------------------------
d-0--------------------0-------
a-0-ring---------3---3-0-------
d-0----------------0---0-------
(bit hard to hear but its there)
e-----------------------------------------------------------------
b----13----13----13----13----13----13----15----15----15----15--15-
g-12----12----12----12----12----12----14----14----14----14----14--
d-----------------------------------------------------------------
a-----------------------------------------------------------------
d-----------------------------------------------------------------
Very end
e-------------------
b-------------------
g-------------------
d-------------------
a-----0-------------
d-0-3-0-------------
pm....

Fuck TRL man fuck n'sync fuck all those fuckin faggots -- Hugo Ferreira
trevor jones
[email protected]


Ваше мнение



Капча