Tantric - Live Your Life (Down)
double drop d
Db Ab Db Gb Bb Db
d--------------------------------
b--------------------------------
g-----------0--2-------0---------
d-----2-4------------0-----4---0-
a---2-----2--------0-----0---0---
d-2--------------0---------------
lead part
d---0---0--0--0--0--0---0--0--0--0---0--0-
b-/12--12-12-12-12-12--12-12-12-12--12-12-
g-----------------------------------------
d-----------------------------------------
a-----------------------------------------
d-----------------------------------------
d--0---0--0--0--0--0---0--0--0--0---0--0-
b-10--10-10-10-10-10--10-10-10-10--10-10-
g----------------------------------------
d----------------------------------------
a----------------------------------------
d----------------------------------------
d-0--0-0-0-0-0--0-0-0-0-0--0-0-0-0-0-0-0-0-0-0-0-0-0-0-
b-8--8-8-8-8-8--8-8-8-8-8--8-8-8-8-8-8-8-8-8-8-8-8-8-8-
g------------------------------------------------------
d------------------------------------------------------
a------------------------------------------------------
d------------------------------------------------------
verse distorted part
d--------------------
b--------------------
g--------------------
d-2------0-0-0-0-0---
a-2------0-0-0-0-0---
d-2------0-0-0-0-0---
runaway runaway with the pain
d--------------------------------------
b--------------------------------------
g------------------------------------0-
d----------------------------------0---
a-2-2--0-2--5-5--2-5--7-7-7-7-10-9-----
d-2-2--0-2--5-5--2-5--7-7-7-7-10-------
pm............................
d-------------------------------------------------------
b-------------------------------------------------------
g-------------------------------------------------------
d-------------------------------------------------------
a-2-2--0-2--5-5-5-5-3-3-3-3-3-3-3-3--2-2--0-2--5-5--2-5-
d-2-2--0-2--5-5-5-5-3-3-3-3-3-3-3-3--2-2--0-2--5-5--2-5-
......................................................
d----------------------------------------
b----------------------------------------
g----------------0-----------------------
d--------------0-------------------------
a-7-7-7-7-10-9------2-2-0-2-5-5-5-5--3-3-
d-7-7-7-7-10--------2-2-0-2-5-5-5-5--3-3-
............ ....... ...
play more 3's before the interlude
interlude:
d------------------------------------------------------
b------------------------------------------------------
g------------------------------------------------------
d------------------------------------------------------
a-2-0-2-7-5~-8-7~-7-5-2-0-2--2-0-2-7-5~-8-7~-7-5-2-0-2-
d-2-0-2-7-5~-8-7~-7-5-2-0-2--2-0-2-7-5~-8-7~-7-5-2-0-2-
d----------------------------------------------------
b----------------------------------------------------
g----------------------------------------------------
d----------------------------------------------------
a-2-0-2-7-5~-8-7~-7-5-2-0-2--2-0-2-7-5~-8-7~-7-3-3-3-
d-2-0-2-7-5~-8-7~-7-5-2-0-2--2-0-2-7-5~-8-7~-7-3-3-3-
.....
play an E5 at the end of the interlude last time.
right fuckin on, Jeff, you are awesome
trevor jones
[email protected]


Ваше мнение



Капча