Tantric - I'll Stay Here
Open Db tuning
Db, Ab, Db, F, Ab, Db

d-6--6-6--7--4---6--6-6--7--4---6--6-6-7-9-7-6--
a-0--0-0--0--0---0--0-0--0--0---0--0-0-0-0-0-0--
f-0--0-0--0--0---0--0-0--0--0---0--0-0-0-0-0-0--
d-----------------------------------------------
a-----------------------------------------------
d-----------------------------------------------
d---6--6-6--7--4---0--0-0--0--
a---0--0-0--0--0---0--0-0--0--
f---0--0-0--0--0---0--0-0--0--
d-----------------------------
a-----------------------------
d-----------------------------
d-0--0-0-0----0-0-0-0-0----0-0-0-0-0----0-0-0-0---
a-0--0-0-0----0-0-0-0-0----0-0-0-0-0----0-0-0-0---
f-0--0-0-0-x--2-2-2-2-2-x--2-2-2-2-2-x--2-2-2-2---
d-0--0-0-0-x--0-0-0-0-0-x--0-0-0-0-0-x--0-0-0-0---
a-0--0-0-0-x--3-3-3-3-3-x--2-2-2-2-2-x--3-3-3-3---
d-0--0-0-0----------------------------------------
d-0--0-0-0----0-0-0-0-0----0-0-0-0-0-------------
a-0--0-0-0----0-0-0-0-0----0-0-0-0-0-------------
f-0--0-0-0-x--2-2-2-2-2-x--2-2-2-2-2-------------
d-0--0-0-0-x--0-0-0-0-0-x--0-0-0-0-0--2/3-3-3-3--
a-0--0-0-0-x--3-3-3-3-3-x--2-2-2-2-2--2/3-3-3-3--
d-0--0-0-0----------------------------2/3-3-3-3--
Pre Chorus:
d----------------------------------------------------------------
a----------------------------------------------------------------
f----------------------------------------------------------------
d-3-3-----3-3-----3-3-----3-3-----2-2-----2-2-----2/3-3-3---3-3--
a-3-3-x-x-3-3-x-x-3-3-x-x-3-3-x-x-2-2-x-x-2-2-x-x-2/3-3-3-x-3-3--
d-3-3-x-x-3-3-x-x-3-3-x-x-3-3-x-x-2-2-x-x-2-2-x-x-2/3-3-3-x-3-3--
Interlude: 2x
d-------------------------------------------------------
a-------------------------------------------------------
f-------------------------------------------------------
d-------------------------------------------------------
a---3-3-3--2-3-5-3-2-------3-3--3-3--------------3-3-3--
d-0------------------5-3-0-3-3--3-3--2-3-5-3-2-0-3-3-3--
Bridge: how can i feel...
d----------------------------------
a----------------------------------
f-8-8-8-8-8-7-7-7-8-8-8-8-8-7-7-7--
d-5-5-5-5-5-5-5-5-5-5-5-5-5-5-5-5--
a-5-5-5-5-5-5-5-5-5-5-5-5-5-5-5-5--
d-5-5-5-5-5-5-5-5-5-5-5-5-5-5-5-5--
now just piece it all together

Two words to describe Tantric...Fucking amazing
trevor jones
[email protected]




Ваше мнение



Капча