I Don't Care-Tantric
Tantric
Tuning:
E, Ab, Db, Gb, B, Eb
some chords used
F#5 Emaj G#m B F(4) C#m D#
e-------0-----0----0---------1--------
b--2----0-----0----0---0-----2----4---
g--0----0-----2----0---0-----2----4---
d--0----3-----2----2---0-----0----2---
a--x----3-----0----3---2-----0----x---
e--2----0-------------------------3---
Verse:
G#m Emaj
e-0-0-0-0---0-0-0-0-0-0-0-0-0-0-0-0-0-0-0-0-0----
b-0-0-0-0---0-0-0-0-0-0-0-0-0-0-0-0-0-0-0-0-0----
g-2-2-2-2-x-0-0-0-0-0-0-0-0-0-0-0-0-0-0-0-0-0-x--
d-2-2-2-2-x-3-3-3-3-3-3-3-3-3-3-3-3-3-3-3-3-0-x--
a-0-0-0-0-x-3-3-3-3-3-3-3-3-3-3-3-3-3-3-3-3-3-x--
e-----------0-0-0-0-0-0-0-0-0-0-0-0-0-0-0-0-0----
Pre Chorus Gtr.2 how can we live in the past now
F#5 Emaj...
e------------------
b------------------
g------------------
d------------------
a-5-5-5-5--3-------
e-2-2-2-2--0-------
Gtr.1
Chorus:
Same as gtr 2 in pre chorus only the f#5 is replaced
with a B chord. Gtr.1 is not played.
Chorus fill: Gtr.3
e-12-12-12-12-12-12-13-12--12-12-12-12-12-13-12--
b------------------------------------------------
g------------------------------------------------
d------------------------------------------------
a------------------------------------------------
e------------------------------------------------
e-12-12-12-12-12-12-13-15--15-15-15-15-15-13-12--
b------------------------------------------------
g------------------------------------------------
d------------------------------------------------
a------------------------------------------------
e------------------------------------------------
Gtr solo: W/phase shifter
e-3--3-5-3--5-3--5-3--3--5--7-5-8-8--8-10-10-10-10-10--10-12--
b-0--0-0-0--0-0--0-0--0--0--0-0-0-0--0--0--0--0--0--0---0--0--
g-------------------------------------------------------------
d-------------------------------------------------------------
a-------------------------------------------------------------
e-------------------------------------------------------------
e-12-12--12-12-12-13-12-12-13-13-13-12-12-12-12-12-12-13-12-13-12-12-
b--0--0---0--0--0--0--0--0--0--0--0--0--0--0--0--0--0--0--0--0--0--0-
g--------------------------------------------------------------------
d--------------------------------------------------------------------
a--------------------------------------------------------------------
e--------------------------------------------------------------------
Bridge: Gtr 2 plays chords listed.
G#m F(4) Emaj C#m Emaj F#5
e------------------------------------------------
b------------------------------------------------
g-2--2---x-x-0--0---x-x--------7--7--x-x---------
d-2--2---x-x-0--0---x-x-3------7--7--x-x-3---5---
a-0--0---x-x-2--2---x-x-3------5--5--x-x-3---5---
e-----------------------0----------------0---2---
G#m F(4) Emaj C#m Emaj
e---------------------------------------------------
b---------------------------------------------------
g-2--2---x-x-0--0---x-x--------7--7--x-x------------
d-2--2---x-x-0--0---x-x-3------7--7--x-x-3---3-x-x--
a-0--0---x-x-2--2---x-x-3------5--5--x-x-3---3-x-x--
e-----------------------0----------------0---0-x-x--
F#5 D# G#m
e------------------------------
b------------------------------
g------------------------2-----
d-5----5--x-x-6----6-x-x-2-----
a-5----5--x-x-6----6-x-x-0-----
e-2----2--x-x-3----3-x-x-------
that's all




Ваше мнение



Капча