Author/Artist: Tantric
Title: I Dont Care
Album: Tantric
Transcribed by: Derek Walls
Email: [email protected]
Tuning: Eb-Ab-Db-Gb-B-Eb, former days of the new guitarist-
(you didn't think it would actually be in standard tuning did ya)
great song, my fav on the album, along with "astounded".
Verse 1
Gtr.1 (acous)
-0--0-0-0----0--0-0---0--0-0---0--0-0----
-0--0-0-0----0--0-0---0--0-0---0--0-0----
-0--0-0-0----0--0-0---0--0-0---0--0-0----
-x--x-x-3--3-3--3-3-3-3--3-3-3-3--3-3----
-3------3--3-3--3-3-3-3--3-3-3-3--3-3----
--------1--1--------1--------1-----------
Verse 2
Gtr.2 (clean elect.)
Gtr.1 tacet
-0--0-0-0----0--0-0---0--0-0---0--0-0----
-0--0-0-0----0--0-0---0--0-0---0--0-0----
-0--0-0-x----x--x-x---x--x-x---x--x-x----
-5--5-5-3--3-3--3-3-3-3--3-3-3-3--3-3----
-----------------------------------------
-----------------------------------------
Verse 3
same as above with Gtr.1 instead
Pre-Chorus
Gtr.1
-0-0-0-0-0-0----0--0-0---0--0-0---0--0-0--
-0-0-0-0-0-0----0--0-0---0--0-0---0--0-0--
-0-0-0-0-0-0----0--0-0---0--0-0---0--0-0--
-5-5-5-5---3--3-3--3-3-3-3--3-3-3-3--3-3--
-5-5-5-5---3--3-3--3-3-3-3--3-3-3-3--3-3--
-3-3-3-3---1--1--------1--------1---------
Gtr.2 (dist)
------------------------------------------
------------------------------------------
------------------------------------------
------------------------------------------
-5-5-5-5---3------------------------------
-3-3-3-3---1------------------------------
Chorus
Gtr.1
-0--0-0-0----0--0-0---0--0-0---0--0-0-----
-0--0-0-0----0--0-0---0--0-0---0--0-0-----
-0--0-0-0----0--0-0---0--0-0---0--0-0-----
-5--5-5-3--3-3--3-3-3-3--3-3-3-3--3-3-----
-3--3-3-3--3-3--3-3-3-3--3-3-3-3--3-3-----
--------1--1--------1--------1------------
Gtr.2
------------------------------------------
------------------------------------------
------------------------------------------
-5----------------------------------------
-3------3---------------------------------
--------1---------------------------------
Fill
Gtr.3 (elect w/delay and wah)
-121212121212121212121212121212131313131313131313-
-121212121212121212121212121212121212121212121212-
--------------------------------------------------
--------------------------------------------------
--------------------------------------------------
--------------------------------------------------
Solo
Gtr.3
(just play around with this, not exact!)
----------------12-12-12-12-12-12-12-12-12-12-12-13-12-13-12-13-15-15-15-15---
-12-12-12-12-12-12-12-12-12-12-12-12-14-12-14-12-12-12-12-12-12-12-12-12-12---
-14-12-14-12-14-12-12-14-12-14-14-12-12-12-12-12-14-14-14-14-14-12-12-12-12---
------------------------------------------------------------------------------
------------------------------------------------------------------------------
------------------------------------------------------------------------------
Bridge
Gtr.2 (dist)
Gtr.1 tacet
Watch your timing!!!
------------------------------------------------
------------------------------------------------
------------------------------------------------
------------------------7-7-7-------------------
-7-7-7xx101010xx3-------5-5-5xx3-3-5------------
-5-5-5xx-7-7-7xx1------------xx1-1-3------------
------------------------------------------------
------------------------------------------------
------------------------------------------------
------------------------7-7-7-------------------
-7-7-7xx101010xx3-------5-5-5xx3--3-5--5-6--6-7-
-5-5-5xx-7-7-7xx1------------xx1--1-3--3-4--4-5-




Ваше мнение



Капча