Hate Me-Tantric
Tantric
Tune down a half step:
Eb Ab Db Gb Bb Eb
Some chords used:
Em A7sus C9 am G6 D2
e-0-----------------0---0---0----
b-0-----3-----3-----1---3---3----
g-0-----0-----0-----2---0---2----
d-2-----2-----x-----2---0---0----
a-2-----0-----3-----0---2---x----
e-0---------------------3---2----
Intro: 4 times
e-------7--7-------7--7---------------0--0-------0-0---2------|
b-------8--8-------8--8-------x-------3--3-------3-3---3------|
g-------7--7-------7--7-------x-----0-0--0-----0-0-0-x-2---x--|
d-7h9--------7h9--------7h9--------------------------x-0-0-x--|
a-----7----------7----------7---0h3--------0h3----------------|
e-------------------------------------------------------------|
Gtr 1
e---------------------------------------------------2-2--
b-7h8-8-8-----7h8-8-8-----7h8------3---3----3---3---3-3--
g-7---7-7---x-7---7-7---x-7----x-x-0---0--x-0---0---2-2--
d-7h9-9-9---x-7h9-9-9---x-7h9--x-x--------x---------0-0--
a----------------------------------3---3----3---3--------
e--------------------------------------------------------
Gtr 2
e--0-0-0-0--0-0-0-0-0-0-0-0-0-0--0-0-0-0-0-0-0-0-0-7~7--7-7~~7-7-7~-
b-/5-5-5-5--5-5-5-5-5-5-5-5-5-5-/5-5-5-5-5-5-5-5-5-8~8--8-8~~8-8-8~-
g-------------------------------------------------------------------
d-------------------------------------------------------------------
a-------------------------------------------------------------------
e-------------------------------------------------------------------
Verse:
e-7-7-7-7--7-7--7-7--7-7---------------------2-2--
b-8-8-8-8--8-8--8-8--8-8--3-3-3-3--3-3--3-3--3-3--
g-7-7-7-7--7-7--7-7--7-7--0-0-0-0--0-0--0-0--2-2--
d-9-9-9-9--9-9--9-9--9-9--x-x-x-x--2-2--2-2--0-0--
a-7-7-7-7--7-7--7-7--7-7--3-3-3-3--0-0--0-0-------
e-------------------------------------------------
Chorus: (gtr 2 plays chords listed)
Em A7 C9 A7
e----------------------------------------------------
b----------------------------------------------------
g-----------------7/9-9-x-------------------7/9-9-x--
d------x-2--2-2-x-------x-5--5--x-2---2-2-x-------x--
a-2-2--x-0--0-0-x-5/7-7---3--3--x-0---0-0-x-5/7-7----
e-0-0------------------------------------------------
Acoustic part before solo:
e-0-0-0-0-0-0-0-0-0-0-0-0-0---
b-0-0-0-0-0-0-0-0-0-0-0-0-0---
g-0-0-0-0-0-0-0-0-0-0-0-0-0---
d-2-2-2-2-2-2-2-2-2-2-2-2-2-x-
a-2-2-2-2-2-2-2-2-2-2-2-2-2-x-
e-0-0-0-0-0-0-0-0-0-0-0-0-0-x-
Guitar solo: (best solo on the cd)
Am G6 D2 G6
e-------------------------------------------5h7p5---5-7-8-
b-----------------------------5h7p5---5-7-8-------8-------
g---------------4h5p4---4-5-7-------8---------------------
d-4h5p4---4-5-7-------7-----------------------------------
a-------7-------------------------------------------------
e---------------------------------------------------------
Am G6 D2
e-10-7-8-10-7-8-10-7-8-10-7-8-10-7-8-10-7-8-10-7-8-10-7-8-10-7-8-
b----------------------------------------------------------------
g----------------------------------------------------------------
d----------------------------------------------------------------
a----------------------------------------------------------------
e----------------------------------------------------------------
G6 Am G6 D2 G6
e-10-7-8-10/12~12------5---8/10---5h8p5---5-----------------------
b--------------------/5---5--------------8---8-5---------7---------
g------------------------------------------------8-7-5---7-5-5-----
d------------------------------------------------------7-------7-5-
a------------------------------------------------------------------
e------------------------------------------------------------------
Am G6 D2 G6
e-----------------------------------------5------5------5------5-
b---------------------------------------5------5------5------5---
g----------------------------------5-7b-----7b-----7b-----7b-----
d----------------------------5-6-7-------------------------------
a-7-6-5-3~-3h5p3-------3-5-7-------------------------------------
e----------------5-3-5-------------------------------------------
e------5------5--------
b----5------5------5---
g-7b-----7b-----7b-----
d----------------------
a----------------------
e----------------------
Chorus comes in again and repeats with the little
lead at the 5th fret under it. End on Em
huge thanks to J.B. again for making all of these tabs




Ваше мнение



Капча