Frequency-Tantric
Tantric
Double Drop Db:
Db Ab Db Gb Bb Db
Fig 1.
D--------------------------------------
B--------------------------------------
G--------------------------------------
D------2~~-----------------------------
A-2-2-------0-2--x-x-0--2-2-7b---2-3-5-
D-2-2-------0-2--x-x-0--2-2-7b---2-3-5-
Verse: PM throughout
D----------------------------
B----------------------------
G----------------------------
D----------------------------
A-2-2-------0-2-2------2-3-5-
D-2-2-------0-2-2------2-3-5-
Pre Chorus:
D-------------------------------------------------------------
B-------------------------------------------------------------
G-------------------------------------------------------------
D-------------------------------------------------------------
A-7-5-7-0------7-5-7-0------7-5-7-0------7-5-7-0------7-5-7-0-
D-7-5-7-0------7-5-7-0------7-5-7-0------7-5-7-0------7-5-7-0-
Fingersyle Chorus
D--------------------|---------2---5---4-----5-----4---
B---5~~--------------|-----1-------------3-----3-----3-
G-7-5~~------0-----0-|---2---2-------------2-----2-----
D--------------------|---------------------------------
A--------5h7---3h5---|-0---------0---------------------
D--------------------|---------------0-----------------
1.
D-----------------------------------
B-----------------------------------
G-----------------------------------
D-----2~~---------------------------
A-2-2-----0-2--x-x-0--2-2-7b--2-3-5-
D-2-2-----0-2--x-x-0--2-2-7b--2-3-5-
2.
D----------------------------
B----------------------------
G----------------------------
D-----2~~--------------------
A-2-2-----0-2--x-x-0--2-2----
D-2-2-----0-2--x-x-0--2-2-7b-
Interlude:
D-----------------------------------
B-----------------------------------
G-----------------------------------
D-----x-x-------x-x-------x-x-------
A-2-2-x-x-0-2-2-x-x-0-2-2-x-x-0-2-2-
D-2-2-----0-2-2-----0-2-2-----0-2-2-
1.
D---------------------------|-------------------
B---------------------------|-------------------
G---------------------------|-------------------
D-x-x-------x-x-------x-x---|-----x-x-----------
A-x-x-0-2-2-x-x-0-2-2-x-x-0-|-2-2-x-x-0-2-2-3-5-
D-----0-2-2-----0-2-2-----0-|-2-2-----0-2-2-3-5-
2.
D-------------------
B-------------------
G-------------------
D-----x-x-----------
A-2-2-x-x-0-2-2-3-5-
D-2-2-----0-2-2-3-5-
End part:
D---------------------------------------------------------------
B---------------------------------------------------------------
G---------------------------------------------------------------
D-----2~~--------------------------------2~~--------------------
A-2-2-----0-2--x-x-0--2-2-7b--2-3-5--2-2-----0-2--x-x-0--2-2----
D-2-2-----0-2--x-x-0--2-2-7b--2-3-5--2-2-----0-2--x-x-0--2-2-7b-
that’s all
look hopefully for a tantric section in the future
thanks to Jeff (Zeta, from tab crawler)
trevor jones
[email protected]




Ваше мнение



Капча