Band: Tantric
Song: Falling Away
CD: After We GO
Transcribed by: Bob Stafford
Email: [email protected]

Tuning: E down 1.5 to C#
A down .5 to G#
D up 1 stp to D#
G down .5 F#
B down .5 A#
E down .5 D#

Intro/verse
D#-----0---0-----0--------5-------
A#--------------------------------
F#--------------------------------
D#-----0---0-----0------0---------
G#-0-3---5---5-3----5-------------
C#--------------------5-----------
Prechorus
D#-----0-----0-----0-----5--------
A#--------------------------------
F#--------------------------------
D#-----0-----0-----0---0----------
G#-0-3---0-3---0-3----------------
C#-------------------5------------
Chorus
D#---------------------*----*-----
A#-5-------------------*----*-----
F#-5--5----------------*-11-*-----
D#-3--5--7----------7--*-9--*-----
G#-3--3--5--3-3-3-3-5--*-9--*-----
C#----3--5--3-3-3-3-5--*-9--*-----
sounds like they interchange these chords
Bridge
D#--------------------------------
A#-0---0---13---------------------
F#-x---x---12---------------------
D#-12--11--0----------------------
G#-x---x--------------------------
C#-10--9--------------------------

**************************************************************************
**************************************************************************




Ваше мнение



Капча