Tantric, Breakdown.
Tabbed by Landen Wilson, [email protected]

Tantric - Breakdown
Album: Tantric
-This song is really easy to play and still sounds really cool!

Tune down a half step + drop D
Low To High - Db Ab Db Gb Bb Eb

Main Riff: (acoustic)
|-----------------------------------------------------------------------|
|-----------------------------------------------------------------------|
|-----2p0---4p0---5p0---4p0---2------2p0---4p0----2p0---4p0----2--------|
|-----------------------------------------------------------------------|
|--0------0-----0-----0-----0-------------------------------------------|
|----------------------------------3-----3------0-----0------0----------|

|-----------------------------------------------------------------------|
|-----------------------------------------------------------------------|
|----2p0---4p0---5p0---7p0---9------2p0---4p0----2p0---4p0----2--------|
|-----------------------------------------------------------------------|
|--0-----0-----0-----0-----0--------------------------------------------|
|----------------------------------3-----3------0-----0------0----------|

Chorus: (distorted electric)
|-----------------------------------------------------------------------|
|-----------------------------------------------------------------------|
|-----------------------------------------------------------------------|
|---7---3---5---5-------------------------------------------------------|
|---7---3---5---5-------------------------------------------------------|
|---7---3---5---5-------------------------------------------------------|

Acoustic Riff II:
|-------0------0--------0-----------------------------------------------|
|-------3------3--------3-----------------------------------------------|
|-----------------------------------------------------------------------|
|-----------------------------------------------------------------------|
|---0-------------------------------------------------------------------|
|------------3-------0--------------------------------------------------|

Enjoy!





Ваше мнение



Капча