Tantric - All To Myself
Double drop d
Db Ab Db Gb Bb Db
w/delay
d--------------------------------------------------------
b--------------------------------------------------------
g--------------------------------------------------------
d-------------------------3~--------------------------3~-
a-5--3-5--3-5--5--3-5-0-----5--3-5--3-5--5--3-5-0----
d--------------------------------------------------------
pm........... .............
chorus: i want to be i want to be all to myself
Gtr 1 electric strums this chord throghout chorus
d--0------------------------
b--3------------------------
g--2------------------------
d--0------------------------
a--0------------------------
d--0------------------------
Gtr 2 acoustic
d----------------------------------
b---0-----1-----3-----3------------
g-----------------------------2----
d-----0-----0-----0-----0---0---0--
a----------------------------------
d-0-----0-----0-----0-----0--------
Prechorus: someday somethings got to...
d-------------------------------
b-------------------------------
g-------------------------------
d-------------------------------
a-0-0-0-0-0--3-3-3-3-3--5--5-5--
d-0-0-0-0-0--3-3-3-3-3--5--5-5--
guitar solo
d-----------------------------------------------------------
b---5-----5-----5-----5-----5-----5-----5-----5-----5-----5-
g-------5-----5-----5-----5-----5-----5-----5-----5-----5---
d-7---7-----7-----7-----7-----7-----7-----7-----7-----7-----
a-----------------------------------------------------------
d-----------------------------------------------------------
d--------------------------------------------------------
b-----5-----5-----5-----5-----5-----5-----5-----5-----5~-
g---5-----5-----5-----5-----5-----5-----5-----5-----5----
d-7-----7-----7-----7-----7-----7-----7-----7-----7------
a--------------------------------------------------------
d--------------------------------------------------------
d----------------------------------------------------14h15p14-
b-5----5--------------5h6p5-----------------------------------
g----5----------------------5---5--12h13p12-------------------
d---------5h6p5---------------7-------------15-12-15----------
a---------------8-5-8-----------------------------------------
d-------------------------------------------------------------
d----------14h15p14-------17-14h15p14----------14h15p14-
b-15-14-15----------15-14-------------15-14-15----------
g-------------------------------------------------------
d-------------------------------------------------------
a-------------------------------------------------------
d-------------------------------------------------------
d----------14h15p14----------15-15~-15-15-15~15-15-15~-15-15-
b-15-14-15----------15-14-14-15-15~-15-15-15~15-15-15~-15-15-
g------------------------------------------------------------
d------------------------------------------------------------
a------------------------------------------------------------
d------------------------------------------------------------
end chord
d--0------------------
b--10-----------------
g--10-----------------
d--0------------------
a--0------------------
d--0------------------
thanks to Jeff, for another amazing tantric tab
trevor jones
[email protected]




Ваше мнение



Капча