From alt.guitar.tab Sat Mar 12 15:10:21 1994
From: [email protected] (Yair Elharrar)
Subject: TAB: Tanita Tikaram - Valentine Heart
This is an easy-to-play tab, and I love the song. I play it this way cause
it fits my range, but if you want to match the original, capo 5th.
Tanita Tikaram - "Valentine Heart"
e------0---0--------0---0-------0---0-------0---0----
B----1---1---1----1---1---1---1---1---1---1---1---1--
G----------------------------------------------------
D----------------------------------------------------
A--3------------3-----------0-----------0------------
E----------------------------------------------------
(Repeat twice)
[If I was a Londoner rich with complaint...]
e------0---0-------0---0-------0---0-------0---0-----
B----1---1---1---1---1---1---1---1---1---1---1---1---
G--0-------------------------------------------------
D--------------3-----------3-----------3-------------
A----------------------------------------------------
E----------------------------------------------------
(Repeat twice)
Alternative first riff (used later):
e------0---0--------0---0-------0---0-------0-----1--
B----1---1---1----1---1---1---1---1---1-0-1---1------
G-----------------------------------------------2----
D----------------------------------------------------
A--3------------3-----------0------------------------
E----------------------------------------------------
The outro is simply C - Am alternated. Have fun! :)
Yair




Ваше мнение



Капча