T. See http://www.olga.net/faq/ for more information. #
Date: Wed, 08 Dec 1999 17:25:50 -0700
From: Paul
Subject: b/bachman_tal/shes_so_high.tab
Artist: Tal Bachman
Song: She's So High
Album: Tal Bachman
12b14 play 12th fret, then bend to 14th fret
12b14r12 play 12th fret, bend to the 14th fret, then release bend
14p12 play 14th fret, then pull off to the 12th fret
14b play 14th fret, then bend up to an undefined note
10~~~~ play 10th fret, then hold note

Key signature: A major
Time signature: 4/4 time
OK. Here's the order in which It goes:
Intro/verse Riff x6
Prechorus x1
Intro/verse Riff x1
Prechorus x1
Chorus x2
Elec. Org. part x1
Chorus x1
Intro/verse Riff x5
PreChorus x1
Intro/verse Riff x1
PreChorus x1
Chorus x2
Elec. Org part x1
Chorus x1
SOLO x1
Intro/verse Riff x6
PreChorus x1
Intro/verse Riff x1
Prechorus x1
Chorus x2
Elec. Org. part x1
Chorus x1
Intro/verse Riff x1
And then end on an A Chord
***********************************************************************
Here's the intro/verse riff
E|----------------------------------9----------------------------------
B|-------10--12----10----10--12-------12-10----------------------------
G|----9---------------9------------------------------------------------
D|--7------------------------------------------------------------------
A|---------------------------------------------------------------------
E|---------------------------------------------------------------------
On this riff, it's a little hard to play 4th string 7th fret if you bar
The 9th fret like a D chord (cause, you would need to bar it with your
Middle finger, and THAT'S REALLY HARD!!!).
Instead, I recommend this fingering:
Index finger on 4th string 7th fret
Middle finger on 3rd string 9th fret
Ring finger on 2nd string 10tth fret
Position#1
E---------
B-10--(12)--
G--9------
D--7------
And stretch your pinky to reach the 2nd string 12th fret the first time.
The SECOND TIME YOU PLAY 2nd string 12th fret, THEN bar your index finger
Like a D chord on 9th fret:
Like this:
Position#2
Pinky
V
E----9------
B--(10)-12--
G----9------
And then back to Position#1, and play the notes.
I don't know the chord part that plays over the riff, so if anybody does,
Please submit it!
Keep playing the riff until PreChorus

***********************************************************************
PreChorus
Some how I can't be - lieve
E|---------------------------------------------------------------------
B|--9--9---9---9-----9-----7~~~~~~~~-----------------------------------
G|--9--9---9---9-----9-----7~~~~~~~~-----------------------------------
D|---------------------------------------------------------------------
A|---------------------------------------------------------------------
E|---------------------------------------------------------------------

***********************************************************************
Here's the Chorus harmony
.. she's so HIIIIIIIIIIGGGGGHHHHH
E|----------------------------------------------------------------------
B|-------------12----12b14rb12-10~~~------------------------------------
G|----------------------------------------------------------------------
D|----------------------------------------------------------------------
A|----------------------------------------------------------------------
E|----------------------------------------------------------------------

************************************************************************
Electric organ part (Elec. Org. part):
(da da da da da)
E|----------------------------------------------------------------------
B|--12--14--12--10--12--14--12--10------------10-10-10-10~-9------------
G|----------------------------------9~~---------------------------------
D|----------------------------------------------------------------------
A|----------------------------------------------------------------------
E|----------------------------------------------------------------------

************************************************************************
Saving the best for last, here's the Solo
During the first few bends at 16th fret, what you do is bend to the 18th
Fret,
And then hit that note (the one bended at 18th fret) twice more before
Bending
Back to the 16th fret.
E|-------------------------|------------------------
B|-------------------------|------------------------
G|--16b-16b-16br--14-12~~--|-16b-16b-16br--14-11~~--
D|-------------------------|------------------------
A|-------------------------|------------------------
E|-------------------------|------------------------
E|-------------------------------|-------------------------|
B|-------------------------------|--14~~~-------14---------|
G|-16b-16b-16br--14-11-13-14-16--|--------14-16-----16-----|
D|-------------------------------|----------------------14-|
A|-------------------------------|-------------------------|
E|-------------------------------|-------------------------|

E|-17b19r17-17~~~~~~~-----|-12-14-14b16r14--12------------|------------|
B|------------------------|---------------------12--14p12-|------------|
G|------------------------|-------------------------------|-14~~~~~~~--|
D|------------------------|-------------------------------|------------|
A|------------------------|-------------------------------|------------|
E|------------------------|-------------------------------|------------|
^
Intro/verse
Riff restarts
I think that's about it.
Any suggestions, comments, additions, corrections or improvements, please
Email Me at [email protected]




Ваше мнение



Капча