-------------------------------------------------------------------------------
Timberwolves At New Jersey - Taking Back Sunday
-------------------------------------------------------------------------------
tabbed by Dave Stinnette

no one tabbed out this song so i had to do the one thing that i hate the most
and do work. the tab is correct. the chorus sounds good the way it is tabbed,
but the group of 'c' notes has a fill at the end that i didnt feel like
tabbing. just follow the rythm and you will be fine, its not a hard song.
have fun.

Intro/Verse (x4)
G|----------------------------------------------------------------------------------------
D|----------------------------------------------------------------------------------------
A|--88-88-88-88-8-8---1010-1010-1010-1010-10-10---1212-1212-1212-1212-12-12---------------
E|----------------------------------------------------------------------------------------

Verse cont.
G|----------------------------------------------------------------------------------------
D|----------------------------------------------------------------------------------------
A|--1010-1010-1010-1010-10-10-------------------------------------------------------------
E|----------------------------------------------------------------------------------------

Chorus (x2)
G|---------------------------------------------------------------------------------------
D|---------------------------------------------------------------------------------------
A|--00000000---33333333------------------------------------------------------------------
E|------------------------33333333---00000~----------------------------------------------

Verse(x4)

Chorus(x2)

Bridge(x10)
G|--------------------------------------------------------------------------------------
D|--------------------------------------------------------------------------------------
A|--0~-----------------3~---------------------------------------------------------------
E|--------------------------------------3~-----------------1~---------------------------

next(x4)
G|---------------------------------------------------------------------------------------
D|---------------------------------------------------------------------------------------
A|--0>-----------------3>----------------------------------------------------------------
E|--------------------------------------3>-----------------1>----------------------------
Verse(x2)

THE END (play it again...its a fun song)




Ваше мнение



Капча