INTRO
Guitar 1
E|---------------------------------|
B|-77777778-7777778-3333335-5555555|
G|-00000000-0000000-0000000-0000000|
D|-xxxxxxxx-xxxxxxx-xxxxxxx-xxxxxxx|
A|-77777777-5555555-3333333-3333333|5x
E|---------------------------------|
VERSE
Guitar 1
E|-----3~~~----2~~~----------------|
B|-----0~~~----0~~~----3~~~----3~~~|
G|-----0~~~----x-------0~~~----0~~~|
D|-----x---2-2-2~~~----x-------x---|
A|-3-3-3~~~--------2-2-2~~~3-3-3~~~|2x
E|---------------------------------|
pm . . . . . . .
Guitar 2
E|-33333333333333332222222233333333|
B|-00000000000000000000000000000000|
G|-00000000xxxxxxxx0000000000000000|
D|-xxxxxxxx22222222xxxxxxxxxxxxxxxx|
A|-33333333--------2222222233333333|1x
E|---------------------------------|
pm...............................
Guitar 2
E|-33333333333333332222222233333333|
B|-00000000000000000000000000000000|
G|-00000000xxxxxxxx0000000000000000|
D|-xxxxxxxx22222222xxxxxxxxxxxxxxxx|
A|-33333333--------2222222233333333|1x
E|---------------------------------|
pm.......................
CHORUS
Guitar 1
E|---------------------------------|
B|-77777778-7777778-3333335-5555555|
G|-00000000-0000000-0000000-0000000|
D|-xxxxxxxx-xxxxxxx-xxxxxxx-xxxxxxx|
A|-77777777-5555555-3333333-3333333|4x
E|---------------------------------|
VERSE
Guitar 1
E|-----3~~~----2~~~----------------|
B|-----0~~~----0~~~----3~~~----3~~~|
G|-----0~~~----x-------0~~~----0~~~|
D|-----x---2-2-2~~~----x-------x---|
A|-3-3-3~~~--------2-2-2~~~3-3-3~~~|2x
E|---------------------------------|
pm . . . . . . .
Guitar 2
E|-33333333333333332222222233333333|
B|-00000000000000000000000000000000|
G|-00000000xxxxxxxx0000000000000000|
D|-xxxxxxxx22222222xxxxxxxxxxxxxxxx|
A|-33333333--------2222222233333333|1x
E|---------------------------------|
pm...............................
Guitar 1
E|--7--7--7--7--7--7--7--7--7--7--7------|
B|---------------------------------------|
G|-7-77-77--7-77-77--7-77-77--7-77-------|
D|---------------------------------------|
A|---------------------------------------|1x
E|---------------------------------------|
pm .. .. . .. .. . .. .. . ..
|
|
Guitar 2
E|-333333333333333322222222333333333~~~~~|
B|-000000000000000000000000000000000~~~~~|
G|-00000000xxxxxxxx00000000000000000~~~~~|
D|-xxxxxxxx22222222xxxxxxxxxxxxxxxxx-----|
A|-33333333--------22222222333333333~~~~~|1x
E|---------------------------------------|
pm...............................
BRIDGE
Guitar 2
E|-----------------------------------------|
B|-------3~~~------3~~~------3~~~------3~~~|
G|----0~~~------0~~~------0~~~------0~~~---|
D|-----------------------------------------|
A|-3~~~~~----0~~~~~------------------------|1x
E|---------------------3~~~~~----3~~~~~----|
Guitar 1 (Delay & Reverb Effects)
E|-3(3-3-3-3-3-3-3-3-3-3-3-3-3-3-3-3-3-3-3)|
B|-x---------------------------------------|
G|-0(0-0-0-0-0-0-0-0-0-0-0-0-0-0-0-0-0-0-0)|
D|-----------------------------------------|
A|-----------------------------------------|2x
E|-----------------------------------------|
|
|
Guitar 2
E|-----------------------------------------|
B|-------3~~~------3~~~------3~~~------3~~~|
G|----0~~~------0~~~------0~~~------0~~~---|
D|-----------------------------------------|
A|-3~~~~~----0~~~~~------------------------|2x
E|---------------------3~~~~~----3~~~~~----|
OUTTRO
Guitar 1
E|--7--7--5-5-5h7-3-7--7--5-5-5h7-3-7--7--5-5-5h7-3-7--7--5-5-5h7-3|
B|-----------------------------------------------------------------|
G|-0--0--0---0-----0--0--0---0-----0--0--0---0-----0--0--0---0-----|
D|-----------------------------------------------------------------|
A|-----------------------------------------------------------------|2x
E|-----------------------------------------------------------------|
|
|
Guitar 2
E|-----------------------------------------------------------------|
B|-----------------------------------------------------------------|
G|-55555-55-55-5555------------------------------------------------|
D|-55555-55-55-555577777-77-77-777755555-55-55-555555555-55-55-5555|
A|-33333-33-33-333377777-77-77-777755555-55-55-555555555-55-55-5555|2x
E|-----------------55555-55-55-555533333-33-33-333333333-33-33-3333|
Guitar 1
E|--7--7--5-5-5h7-3-7--7--5-5-5h7-3-7--7--5-5-5h7-3-7--7--5-5-5h7-3|
B|-----------------------------------------------------------------|
G|-0--0--0---0-----0--0--0---0-----0--0--0---0-----0--0--0---0-----|
D|-----------------------------------------------------------------|
A|-----------------------------------------------------------------|2x
E|-----------------------------------------------------------------|
|
|
Guitar 2
E|-----------------------------------------------------------------|
B|-----------------------------------------------------------------|
G|-5555555555555555------------------------------------------------|
D|-5555555555555555777777777777777755555555555555555555555555555555|
A|-3333333333333333777777777777777755555555555555555555555555555555|2x
E|-----------------555555555555555533333333333333333333333333333333|
Guitar 1
E|--7--7--5-5-5h7-3-7--7--5-5-5h7-3-7--7--5-5-5h7-3-7--7--5-5-5h7-3|
B|-----------------------------------------------------------------|
G|-0--0--0---0-----0--0--0---0-----0--0--0---0-----0--0--0---0-----|
D|-----------------------------------------------------------------|
A|-----------------------------------------------------------------|1x
E|-----------------------------------------------------------------|
|
|
Guitar 2
E|-----------------------------------------------------------------|
B|-----------------------------------------------------------------|
G|-----------------------------------------------------------------|
D|-5~~~~~----------------------------------------------------------|
A|-5~~~~~----------------------------------------------------------|1x
E|-3~~~~~----------------------------------------------------------|




Ваше мнение



Капча