-------------------------------------------------------------------------------
NEW AMERICAN CLASSIC - Taking Back Sunday
-------------------------------------------------------------------------------
Tabbed by: Paul Seal
Email: [email protected]
Tuning: EADGBe
Intro/Verse
e|-----------------2--------0----------|
B|--0-------3------------0-----0h1h3---|
G|------------0-------0----------------|
D|-----0h4------4--0-------------------|
A|--------------------------3----------|
E|--3----------------------------------|
Pre Chorus
() add on final strum
C Dsus4add9 Em G
slide
e|-0------0-------0-(2h3)--3-(2h3)--|
B|-1------3-------0--------0--------|
G|-0------0-------0--------0--------| X2
D|-2------4-------2--------0--------|
A|-3------5-------2--------2--------|
E|----------------0--------3--------|
Chorus
C Dsus4add9 Em C Dsus4add9 C
slide
e|-0------0-------0---0---0---0-------|
B|-1------3-------0---3---1---1-------|
G|-0------0-------0---0---0---0-------|
D|-2------4-------2---4---2---4-------|
A|-3------5-------2---5---3---5-------|
E|----------------0-------------------|
Intro/Verse
Pre Chorus
Chorus
Breakbown - havent figured this out yet is based around the chords from the intro.
Pre Chorus
Chorus
Outro Last Time
e|-----------------2--------0-|-------|------------2---|
B|--0-------3------------0----|-0h1h3-|-0h1h3p1p0--0---|
G|------------0-------0-------|-------|------------0---|
D|-----0h4------4--0----------|-------|------------0---|
A|--------------------------3-|-------|------------2---|
E|--3-------------------------|-------|------------3---|
Sorry i didnt finish this, its a good start though !
| / slide up
| slide down
| h hammer-on
| p pull-off
| ~ vibrato
| + harmonic
| x Mute note
===============================================================================




Ваше мнение



Капча