Band : Taking Back Sunday
Song : Head Club
Album : Tell All Your Friends
Tab From : Lozerkid Atticus
Date : 24-02-2004

If you wanna know what they're playing in the first part of the song
with the strange drum sounds...it's easy cause Guitar 2 plays only one time:
E-----
B-----
G--4--
D--5-- (with alot of reverb and flanger.)
A--2--
E-----

INTRO: (After strange drum sounds you get this) By Guitar 1
E----------------------
B----------------------
G--4444/5555-4444/5555-
D--5555/5555-5555/5555- (2x)
A--2222/3333-2222/3333-
E----------------------

Verse 1:

Guitar 2
E--------------------------------------
B--------------------------------------
G--4444444-7777777-55555555555555------
D-------------------------------------- (4x)
A--2222222-5555555-33333333333333------
E--------------------------------------
|Here start guitar 1|
Guitar 1
E--------------------------------------
B--------------------------------------
G------------------4444/5555-4444/5555-
D------------------5555/5555-5555/5555-
A------------------2222/3333-2222/3333-
E--------------------------------------

PreChorus Both Guitar 1 & 2 does this:
E---------------
B---------------
G---------------
D--2222222------
A--2222222------
E--0000000------
P.m*******

Chorus Guitar 1 & 2 together:
E---------------------------------------------
B---------------------------------------------
G-------------555555555-----------------------
D---222222222-555555555-555555555-444444444--- (4x)
A---222222222-333333333-555555555-444444444---
E---000000000-----------333333333-222222222---

Bridge Guitar 1:
E----------------------------
B----------------------------
G-------------------5--------
D---5-------2-------5-(13x)--
A---5-(13x)-2-(13x)-3--------
E---3-------0----------------
P.m**********

Outro By Guitar 1 & 2:
E----------------------------
B----------------------------
G-------------------5--------
D---5-------2-------5-(13x)-- (4x)
A---5-(13x)-2-(13x)-3--------
E---3-------0----------------

Ending Both Guitars
E---------------------------------
B---------------------------------
G---------------------------------
D---5------5------5------5------5-
A---5------5------5------5------5-
E---3------3------3------3------3-




Ваше мнение



Капча