Taking Back Sunday - Good Enough

From/de Maxime Boulay De lachute

6x
e)--19-----15------------------)
B)----19-----15----------------)
G)-----------------------------)
D)-----------------------------)
A)-----------------------------)
E)-----------------------------)

after the second time the other guitar comes with this
4x Intro
e)------------------------------------------------------------)
B)------------------------------------------------------------)
G)----4--4----------------------------------------------------)
D)---5--5-5--4--4-4-------------------------------------------)
A)------------5--5---7--7-7--9--9--9--------------------------)
E)--------------------8--8----10-10---------------------------)

7x
e)-----------------15-15-14-14-)
B)-----15-15-19-19-------------)
G)-----------------------------)
D)-----------------------------)
A)-----------------------------)
E)-----------------------------)

Chorus
2x
e)------------------------------------------------------------)
B)------------------------------------------------------------)
G)-----------------------------------5------7------5------7---)
D)---5---4---2---4---5---4---2---4---5------7------5------7---)
A)---5---4---2---4---5---4---2---4---3------5------3------5---)
E)---3---2---0---2---3---2---0---2----------------------------)

from 2:14 to 2:21

e)-19-15---19-15---)
B)------15------15-)
G)-----------------)
D)-----------------)
A)-----------------)
E)-----------------)

8x
e)-----------------15-15-14-14-)
B)-----15-15-19-19-------------)
G)-----------------------------)
D)-----------------------------)
A)-----------------------------)
E)-----------------------------)
4x
e)-----------------------------)
B)-----------------------------)
G)-----------------------------)
D)-6--8--3--5--6--8--3--5------)
A)-6--8--3--5--6--8--3--5------)
E)-4--6--1--3--4--6--1--3------)

solo:

2x
e)-----------------------------------------------)
B)-----------------------------------------------)
G)-----------------------------------------------)
D)-9-7-10-9-5-12-10-7-9-7-10-9-5-12-10-7---------)
A)-----------------------------------------------)
E)-----------------------------------------------)

for this part listen to the beat or your gonna miss it




Ваше мнение



Капча