#----------------------------------PLEASE NOTE--------------------------------#
#This file is the author's own work and represents their interpretation of the#
#song. You may only use this file for private study, scholarship, or research.#
#-----------------------------------------------------------------------------#
#-- File created with Instab - http://www.pconline.com/~smcarey/instab.html --#
#-----------------------------------------------------------------------------#

Author/Artist: Taking Back Sunday
Title: Cute Without the 'e' acoustic
Tabbed by: Andrew Biles

I haven't written down the order for this song and the bridge is quite rough,
it's missing a few notes from it and by the end of trying to work it out it just
seemed like the guitarist was playing the same kind of riff over so I sectioned
off the main part, but there may be slight variations on it.
Standard Tuning

Verse
|--------------------------------------
|---0-------0-------0------------------
|---4---4---4---4---4---4--------------
|-----2-------2-------2-----1-2p1---1--
|-4-------0-------2-------2-------2----
|--------------------------------------

Chorus
|-0----0----0----0--
|-0----0----0----0--
|-6----4----1----4--
|-6----2----2----4--
|-4----0----2----2--
|-----------0-------

End of chorus
|-----------------------------------------------------------------
|---0---0---0---0---0---0----------------0---0---0---0---0---0----
|---4---4---4---4---4---4----------------4---4---4---4---4---4----
|-----2-------2-------2-----1-2p1---1------2-------2-------2------
|-4-------0-------2-------2-------2----4-------0-------2-------2--
|-----------------------------------------------------------------

Bridge
|----0-------------0------------0-------------0---------|-----0-------------0-
|------2----4--------0----0-----2-------4-----0---------|----------4-----4----
|-------------4-------------------------4---------------|-----4------4--------
|-------------------------------------4-----2-----------|---2----------4------
|-4------2-------------0-----4----4-2-------------0-----|-4--------2--------2-
|---------------0-------------------------0-----5---4-2-|---------------------

---------------|
-0---0---------|
---------------|
---2-----------|
---------0-----|
-------5---4-0-|

any questions? [email protected]
______________________
Lyrics:

Your lipstick, his collar.. don't bother Angel
I know exactly what goes on

When everything you'll get is
everything that you've wanted, princess
(well which would you prefer)
My finger on the trigger, or
(me face down, down across your floor)
Me face down, down across your floor
(me face down, down across your floor)
Well just so long as this thing's loaded

And will you tell all your friends
you've got your gun to my head
This all was only wishful thinkin,
this all was only wishful thinkin
And will you tell all your friends
you've got your gun to my head
This all was only wishful thinkin,
this all was only wishful thinkin
let's go...

Don't bother trying to explain Angel
I know exactly what goes on when you're on and
How about I'm outside of your window
(how about I'm outside of your window)
Watchin him keep the details covered
You're such a sucker (you're such a sucker)
for a sweet talker, yeah

And will you tell all your friends
you've got your gun to my head
This all was only wishful thinkin,
this all was only wishful thinkin
(the only thing that I regret is that I, I never let you hold me back)
And will you tell all your friends
you've got your gun to my head
This all was only wishful thinkin,
this all was only wishful thinkin

Hoping for the best just hoping nothing happens
A thousand clever lines unread on clever napkins
I wil never ask if you don't ever tell me
I know you well enough to know you never loved me
Hoping for the best just hoping nothing happens
A thousand clever lines unread on clever napkins
I will never ask if you don't ever tell me
I know you well enough to know you never loved me
Hoping for the best just hoping nothing happens
A thousand clever lines unread on clever napkins
I will never ask if you don't ever tell me
I know you well enough to know...

Why can't I feel anything
from anyone other than you?
Why can't I feel anything
from anyone other than you?

And all of this was all your fault
And all of this

(I stay jealous)
I stay wrecked and jealous for this,
for this simple reason
I just need to keep you in mind
as something larger than life
(she'll destroy us all before she's through
and find a way to blame somebody else)
I stay wrecked and jealous for this,
for this simple reason
I just need to keep you in mind
as something larger than life
(she'll destroy us all before she's through
and find a way to blame somebody else)
I stay wrecked and jealous for this,
for this simple reason
I just need to keep you in mind
as something larger than life!




Ваше мнение



Капча