Artist: Taking Back Sunday
Song: Cute Without The ‘e’ (cut from the team)
Album: Tell All Your Friends

There weren’t any tabs that were 100% correct, so I tabbed it out myself.
I’m 99% sure that this is totally correct.

~=let ring *=palm mute

Intro (With Chorus Effect)
|------------------|
|------------------|
|-4~~~4~~~4~~~4~~~-|
|-2~~~2~~~2~~~2~~~-|
|-4~~~0~~~2~~~6~~~-|

Verse
Rhythm
|------------------------------------|
|------------------------------------|
|------------------------------------|
|-66666666----------4444444444444444-|
|-44444444-77777777-2222222222222222-|
|----------55555555------------------|
******** ******** ****************

Verse
Lead
|------------------------------------------|
|---4-4----4-4-4----4-4-4------------------|
|----------------------------------1-------|
|--------------------------------2---2---2-|
|---------------------------4--4--4----4---|
|------------------------------------------|
* *** * * *
Chorus
Both Guitars
|----------------------------|
|----------------------------|
|-66666666----------99999999-|
|-66666666-99999999-99999999-|
|-44444444-99999999-77777777-|
|----------77777777----------|

Interlude Rhythm Lead
|------------| |-5^------| |-----4------4-5—4h5p4-|
|------------| |------5^-| |---5------5-----------|
|-6-----9----| |---------| |-4------4-------------|
|-6—-9—-9—-7-| |---------| |----------------------|
|-4—-9—-7--7-| |---------| |----------------------|
|----7-----5-| |---------| |----------------------|

Bridge
Rhythm Lead
|----------------| |-------------|
|----------------| |-------------|
|-6----2----4~~--| |-2-1---2-1---|
|-6----2----4~~--| |-----2-----2-|
|-4----0----2~~--| |-------------|
|----------------| |-------------|

Outro
Both guitars
|------------------------------------|
|------------------------------------|
|-66666666-22222222-4444444444444444-|
|-66666666-22222222-4444444444444444-|
|-44444444-00000000-2222222222222222-|
|------------------------------------|

End With
|--------|
|--------|
|-6-2-4~~|
|-6-2-4~~|
|-4-0-2~~|
|--------|

Lyrics
Your lipstick, his collar.. don't bother Angel
I know exactly what goes on

When everything you'll get is
everything that you've wanted, princess
(well which would you prefer)
My finger on the trigger, or
(me face down, down across your floor)
Me face down, down across your floor
(me face down, down across your floor)
Well just so long as this thing's loaded

And will you tell all your friends
you've got your gun to my head
This all was only wishful thinkin,
this all was only wishful thinkin
And will you tell all your friends
you've got your gun to my head
This all was only wishful thinkin,
this all was only wishful thinkin
let's go...

Don't bother trying to explain Angel
I know exactly what goes on when you're on and
How about I'm outside of your window
(how about I'm outside of your window)
Watchin him keep details covered
You're such a sucker (you're such a sucker)
for a sweet talker

And will you tell all your friends
you've got your gun to my head
This all was only wishful thinkin,
this all was only wishful thinkin
(the only thing I regret is that I, I never let you hold me back)
And will you tell all your friends
you've got your gun to my head
This all was only wishful thinkin,
this all was only wishful thinkin

Hoping for the best just hoping nothing happens
A thousand clever lines unread on clever napkins
I will never ask if you don't ever tell me
I know you well enough to know you never loved me
(why can't i feel anything for anyone other than you)
Hoping for the best just hoping nothing happens
A thousand clever lines unread on clever napkins
I will never ask if you don't ever tell me
I know you well enough to know you never loved me
(why can't i feel anything for anyone other than you)
Hoping for the best just hoping nothing happens
A thousand clever lines unread on clever napkins
I will never ask if you don't ever tell me
I know you well enough to know you never loved me

And all of this was all your fault
And all of this

(I stay jealous)
I stay wrecked and jealous for this,
for this simple reason, I
I just need to keep you in mind
as something larger than life
(she'll destroy us all before she's through
and find a way to blame somebody else)
I stay wrecked and jealous for this,
for this simple reason, I
I just need to keep you in mind
as something larger than life
(she'll destroy us all before she's through
and find a way to blame somebody else)
I stay wrecked and jealous for this,
for this simple reason, I
I just need to keep you in mind
as something larger than life!

Listen to the CD for exact timing and how many times to do each thing. Enjoy!




Ваше мнение



Капча