Taking Back Sunday
Where You Want To Be
Bonus Mosh Pt. II
- standard tuning
- 3/4 (time)
INTRO
guitar 2
e |------------|------------|------------|------------|
B |------------|------------|------------|------------|
G |------------|------------|------------|------------|
D |------------|------------|------------|----x-x-x---|
A |5-5-5-5-5-0-|------5-5-0-|2-2-2-5-5-0-|----x-x-x---| 2x
E |3-3-3-------|5-5-5-------|------------|5-x-------5-|
pm . . . . . . . . . . . . . . . . . . .
VERSE 1
guitar 1
e |------------|5-----------|------------|------------|
B |7p3-2/32/3-|--3-2/32/3-|----5---5---|--0---0-----|
G |------------|------------|4h7---7---7-|4---4---4/7-|
D |------------|------------|------------|------------|
A |------------|------------|------------|------------| 3x
E |------------|------------|------------|------------|
guitar 2
e |------------|------------|------------|------------|
B |------------|------------|------------|------------|
G |------------|------------|------------|------------|
D |------------|------------|------------|----x-x-x---|
A |5-5-5-5-5-0-|------5-5-0-|2-2-2-5-5-0-|----x-x-x---| 3x
E |3-3-3-------|5-5-5-------|------------|5-x-------5-|
pm . . . . . . . . . . . . . . . . . . .
guitar 1
e |------------|5-----------|------------|------------|
B |7p3-2/32/3-|--3-2/32/3-|----5---5---|7b8b7b8b7b--|
G |------------|------------|4h7---7---7-|------------|
D |------------|------------|------------|------------|
A |------------|------------|------------|------------| 1x
E |------------|------------|------------|------------|
guitar 2
e |------------|------------|------------|------------|
B |------------|------------|------------|------------|
G |------------|------------|------------|------------|
D |------------|------------|------------|----x-x-x---|
A |5-5-5-5-5-0-|------5-5-0-|2-2-2-5-5-0-|----x-x-x---| 1x
E |3-3-3-------|5-5-5-------|------------|5-x-------5-|
pm . . . . . . . . . . . . . . . . . . .
CHORUS
guitar 1
e |------------|------------|------------|------------|
B |------------|------------|------------|------------|
G |------7-7-7-|------7-7-7-|------7-7-7-|9-9-9-7-7-7-|
D |------------|------------|------------|------------|
A |------------|------------|------------|------------| 1x
E |------------|------------|------------|------------|
guitar 2
e |------------|------------|------------|------------|
B |------------|------------|------------|------------|
G |------------|------------|------------|------------|
D |------------|------------|------------|------------|
A |5-5-5-5-5-5-|7-7-7-7-7-7-|9-9-9-9-9-9-|9-9-9-9-9-9-| 1x
E |3-3-3-3-3-3-|5-5-5-5-5-5-|7-7-7-7-7-7-|7-7-7-7-7-7-|
guitar 1
e |------------|------------|------------|------------|
B |------------|------------|------------|8-8-8-7-7-7-|
G |------7-7-7-|------7-7-7-|------7-7-7-|------------|
D |------------|------------|------------|------------|
A |------------|------------|------------|------------| 1x
E |------------|------------|------------|------------|
guitar 2
e |------------|------------|------------|------------|
B |------------|------------|------------|------------|
G |------------|------------|------------|------------|
D |------------|------------|------------|------------|
A |5-5-5-5-5-5-|7-7-7-7-7-7-|9-9-9-9-9-9-|9-9-9-9-9-9-| 1x
E |3-3-3-3-3-3-|5-5-5-5-5-5-|7-7-7-7-7-7-|7-7-7-7-7-7-|
guitar 1
e |------------|------------|------------|------------|
B |------7-7-7-|------7-7-7-|------7-7-7-|8-8-8-7-7-7-|
G |------7-7-7-|------7-7-7-|------7-7-7-|7-7-7-7-7-7-|
D |------------|------------|------------|------------|
A |------------|------------|------------|------------| 2x
E |------------|------------|------------|------------|
guitar 2
e |------------|------------|------------|------------|
B |------------|------------|------------|------------|
G |------------|------------|------------|------------|
D |------------|------------|------------|------------|
A |5-5-5-5-5-5-|7-7-7-7-7-7-|9-9-9-9-9-9-|9-9-9-9-9-9-| 2x
E |3-3-3-3-3-3-|5-5-5-5-5-5-|7-7-7-7-7-7-|7-7-7-7-7-7-|
VERSE 2
guitar 1
e |------------|------------|------------|------------|
B |------------|------------|------------|2h3p2h3p2---|
G |------------|------------|------------|---------h2-|
D |------------|------------|------------|------------|
A |------------|------------|------------|------------| 1x
E |------------|------------|------------|------------|
guitar 2
e |------------|------------|------------|------------|
B |------------|------------|------------|------------|
G |------------|------------|------------|------------|
D |------------|------------|------------|----x-x-x---|
A |5-5-5-5-5-0-|------5-5-0-|2-2-2-5-5-0-|----x-x-x---| 1x
E |3-3-3-------|5-5-5-------|------------|5-x-------5-|
pm . . . . . . . . . . . . . . . . . . .
guitar 1
e |------------|------------|------------|------------|
B |------------|------------|------------|2h3p2h3p2---|
G |2/4~~~~~~~~~|4----------|------------|---------h2-|
D |------------|------------|------------|------------|
A |------------|------------|------------|------------| 1x
E |------------|------------|------------|------------|
guitar 2
e |------------|------------|------------|------------|
B |------------|------------|------------|------------|
G |------------|------------|------------|------------|
D |------------|------------|------------|----x-x-x---|
A |5-5-5-5-5-0-|------5-5-0-|2-2-2-5-5-0-|----x-x-x---| 1x
E |3-3-3-------|5-5-5-------|------------|5-x-------5-|
pm . . . . . . . . . . . . . . . . . . .
guitar 1
e |------------|------5-----|------5-----|------------|
B |------------|------------|------------|2h3p2h3p2---|
G |2/4-----4-4-|4/6-----6---|6/7-----7---|---------h2-|
D |------------|------------|------------|------------|
A |------------|------------|------------|------------| 1x
E |------------|------------|------------|------------|
guitar 2
e |------------|------------|------------|------------|
B |------------|------------|------------|------------|
G |------------|------------|------------|------------|
D |------------|------------|------------|----x-x-x---|
A |5-5-5-5-5-0-|------5-5-0-|2-2-2-5-5-0-|----x-x-x---| 1x
E |3-3-3-------|5-5-5-------|------------|5-x-------5-|
pm . . . . . . . . . . . . . . . . . . .
guitar 1
e |------------|------5-----|------5-----|2--h3--/10-8|
B |------------|------------|------------|------------|
G |2/4-----4-4-|4/6-----6---|6/7-----7---|------------|
D |------------|------------|------------|------------|
A |------------|------------|------------|------------| 1x
E |------------|------------|------------|------------|
guitar 2
e |------------|------------|------------|------------|
B |------------|------------|------------|------------|
G |------------|------------|------------|------------|
D |------------|------------|------------|----x-x-x---|
A |5-5-5-5-5-0-|------5-5-0-|2-2-2-5-5-0-|----x-x-x---| 1x
E |3-3-3-------|5-5-5-------|------------|5-x-------5-|
pm . . . . . . . . . . . . . . . . . . .
CHORUS
guitar 1
e |------------|------------|------------|------------|
B |------------|------------|------------|------------|
G |------7-7-7-|------7-7-7-|------7-7-7-|9-9-9-7-7-7-|
D |------------|------------|------------|------------|
A |------------|------------|------------|------------| 1x
E |------------|------------|------------|------------|
guitar 2
e |------------|------------|------------|------------|
B |------------|------------|------------|------------|
G |------------|------------|------------|------------|
D |------------|------------|------------|------------|
A |5-5-5-5-5-5-|7-7-7-7-7-7-|9-9-9-9-9-9-|9-9-9-9-9-9-| 1x
E |3-3-3-3-3-3-|5-5-5-5-5-5-|7-7-7-7-7-7-|7-7-7-7-7-7-|
guitar 1
e |------------|------------|------------|------------|
B |------------|------------|------------|8-8-8-7-7-7-|
G |------7-7-7-|------7-7-7-|------7-7-7-|------------|
D |------------|------------|------------|------------|
A |------------|------------|------------|------------| 1x
E |------------|------------|------------|------------|
guitar 2
e |------------|------------|------------|------------|
B |------------|------------|------------|------------|
G |------------|------------|------------|------------|
D |------------|------------|------------|------------|
A |5-5-5-5-5-5-|7-7-7-7-7-7-|9-9-9-9-9-9-|9-9-9-9-9-9-| 1x
E |3-3-3-3-3-3-|5-5-5-5-5-5-|7-7-7-7-7-7-|7-7-7-7-7-7-|
guitar 1
e |------------|------------|------------|------------|
B |------7-7-7-|------7-7-7-|------7-7-7-|8-8-8-7-7-7-|
G |------7-7-7-|------7-7-7-|------7-7-7-|7-7-7-7-7-7-|
D |------------|------------|------------|------------|
A |------------|------------|------------|------------| 2x
E |------------|------------|------------|------------|
guitar 2
e |------------|------------|------------|------------|
B |------------|------------|------------|------------|
G |------------|------------|------------|------------|
D |------------|------------|------------|------------|
A |5-5-5-5-5-5-|7-7-7-7-7-7-|9-9-9-9-9-9-|9-9-9-9-9-9-| 2x
E |3-3-3-3-3-3-|5-5-5-5-5-5-|7-7-7-7-7-7-|7-7-7-7-7-7-|
BRIDGE (Pt 1)
guitar 1
e |------------|------------|------------|------------|
B |------------|------------|------------|------------|
G |------7-7-7-|------7-7-7-|------7-7-7-|------7-7b8-|
D |------------|------------|------------|------------|
A |------------|------------|------------|------------| 1x
E |------------|------------|------------|------------|
guitar 2
e |------------|------------|------------|------------|
B |------------|------------|------------|------------|
G |------------|------------|------------|------------|
D |------------|------------|------------|------------|
A |9-9-9-------|9-9-9-------|9-9-9-------|9-9-9-------| 1x
E |7-7-7-------|7-7-7-------|7-7-7-------|7-7-7-------|
guitar 1
e |------------|------------|------------|------------|
B |------7-7-7-|------7-7-7-|------7-7-7-|------7-7-7-|
G |------7-7-7-|------7-7-7-|------7-7-7-|------7-7-7-|
D |------------|------------|------------|------------|
A |------------|------------|------------|------------| 1x
E |------------|------------|------------|------------|
guitar 2
e |------------|------------|------------|------------|
B |------------|------------|------------|------------|
G |------------|------------|------------|------------|
D |------------|------------|------------|------------|
A |5-5-5-------|5-5-5-------|5-5-5-------|5-5-5-------| 1x
E |3-3-3-------|3-3-3-------|3-3-3-------|3-3-3-------|
guitar 1
e |------------|------------|------------|------------|
B |------------|------------|------------|------------|
G |------7-7-7-|------7-7-7-|------7-7-7-|------7-7-7-|
D |------------|------------|------------|------------|
A |------------|------------|------------|------------| 1x
E |------------|------------|------------|------------|
guitar 2
e |------------|------------|------------|------------|
B |------------|------------|------------|------------|
G |------------|------------|------------|------------|
D |------------|------------|------------|------------|
A |9-9-9-------|9-9-9-------|9-9-9-------|9-9-9-------| 1x
E |7-7-7-------|7-7-7-------|7-7-7-------|7-7-7-------|
guitar 1
e |------------|------------|------------|------------|
B |------7-7-7-|------7-7-7-|------7-7-7-|------7-7-7-|
G |------7-7-7-|------7-7-7-|------7-7-7-|------7-7-7-|
D |------------|------------|------------|------------|
A |------------|------------|------------|------------| 1x
E |------------|------------|------------|------------|
guitar 2
e |------------|------------|------------|------------|
B |------------|------------|------------|------------|
G |------------|------------|------------|------------|
D |------------|------------|------------|------------|
A |5-5-5-------|5-5-5-------|5-5-5-------|5-5-5-------| 1x
E |3-3-3-------|3-3-3-------|3-3-3-------|3-3-3-------|
BRIDGE (Pt 2)
guitar 1
e |------------|------------|------------|------------|
B |------3-----|------2-----|------3-----|----3---2h3-|
G |----4---4---|----4---4---|----4---4---|------------|
D |------------|------------|------------|------0-----|
A |2~~~~~~~~~~~|0~~~~~~~~~~~|------------|------------| 5x
E |------------|------------|0~~~~~~~~~2-|3~~~~~~~~~~~|
guitar 2
e |------------|------------|------------|------------|
B |------------|------------|------------|------------|
G |------------|------------|------------|------------|
D |------------|------------|------------|------------|
A |9----------|------------|------------|------------| 5x
E |7----------|------------|------------|------------|
guitar 1
e |------------|------------|------------|------------|
B |------3-----|------2-----|------3-----|----3---2h3-|
G |----4---4---|----4---4---|----4---4---|------------|
D |------------|------------|------------|------0-----|
A |2~~~~~~~~~~~|0~~~~~~~~~~~|------------|------------| 4x
E |------------|------------|0~~~~~~~~~2-|3~~~~~~~~~~~|
e |------------|------------|------------|------------|
B |------3-----|------2-----|------3-----|------------|
G |----4---4---|----4---4---|----4---4---|------------|
D |------------|------------|------------|------------|
A |2~~~~~~~~~~~|0~~~~~~~~~~~|------------|------------| 1x
E |------------|------------|0~~~~~~~~~2-|3~~~~~~~~~~~|
OUTTRO
guitar 2
e |------------|
B |------------|
G |(noise)-----|
D |(noise)-----|
A |----------4-| 1x
E |----------2-|
guitar 1
e |------------|------------|------------|------------|
B |------------|------------|------------|------------|
G |------------|------------|------------|------------|
D |------------|------------|------------|------------|
A |------------|------------|------------|------------| 1x
E |------------|------------|------------|------------|
guitar 2
e |------------|------------|------------|------------|
B |------------|------------|------------|------------|
G |------------|------------|------------|------------|
D |------------|------------|------------|------------|
A |5-5-5-5-5-5-|5-5-5-5-5-5-|9-9-9-9-9-9-|9-9-9-9-9-9-| 1x
E |3-3-3-3-3-3-|3-3-3-3-3-3-|7-7-7-7-7-7-|7-7-7-7-7-7-|
guitar 1
e |------------|------------|------------|------------|
B |7-7-7-7-7-7-|7-7-7-7-7-7-|------------|------------|
G |x-x-x-x-x-x-|x-x-x-x-x-x-|7-7-7-7-7-7-|7-7-7-7-7-7-|
D |4-4-4-4-4-4-|4-4-4-4-4-4-|x-x-x-x-x-x-|x-x-x-x-x-x-|
A |------------|------------|5-5-5-5-5-5-|5-5-5-5-5-5-| 1x
E |------------|------------|------------|------------|
guitar 2
e |------------|------------|------------|------------|
B |------------|------------|------------|------------|
G |------------|------------|------------|------------|
D |------------|------------|------------|------------|
A |9-9-9-9-9-9-|9-9-9-9-9-9-|5-5-5-5-5-5-|5-5-5-5-5-5-| 1x
E |0-0-0-0-0-0-|0-0-0-0-0-0-|3-3-3-3-3-3-|3-3-3-3-3-3-|
guitar 1
e |------------|------------|------------|------------|
B |------------|------------|------------|------------|
G |------------|------------|------------|------------|
D |------------|------------|------------|------------|
A |------------|------------|------------|------------| 1x
E |------------|------------|------------|------------|
guitar 2
e |------------|------------|------------|------------|
B |------------|------------|------------|------------|
G |------------|------------|------------|------------|
D |------------|------------|------------|------------|
A |5-5-5-5-5-5-|5-5-5-5-5-5-|9-9-9-9-9-9-|9-9-9-9-9-9-| 1x
E |3-3-3-3-3-3-|3-3-3-3-3-3-|7-7-7-7-7-7-|7-7-7-7-7-7-|
guitar 1
e |------------|------------|------------|------------|
B |7-7-7-7-7-7-|7-7-7-7-7-7-|------------|------------|
G |x-x-x-x-x-x-|x-x-x-x-x-x-|7-7-7-7-7-7-|7-7-7-7-7-7-|
D |4-4-4-4-4-4-|4-4-4-4-4-4-|x-x-x-x-x-x-|x-x-x-x-x-x-|
A |------------|------------|5-5-5-5-5-5-|5-5-5-5-5-5-| 1x
E |------------|------------|------------|------------|
guitar 2
e |------------|------------|------------|------------|
B |------------|------------|------------|------------|
G |------------|------------|------------|------------|
D |------------|------------|------------|------------|
A |9-9-9-9-9-9-|9-9-9-9-9-9-|5-5-5-5-5-5-|5-5-5-5-5-5-| 1x
E |0-0-0-0-0-0-|0-0-0-0-0-0-|3-3-3-3-3-3-|3-3-3-3-3-3-|
guitar 1
e |------------|------------|------------|------------|
B |------------|------------|------------|------------|
G |------------|------------|------------|------------|
D |------------|------------|------------|------------|
A |------------|------------|------------|------------| 1x
E |------------|------------|------------|------------|
guitar 2
e |------------|------------|------------|------------|
B |------------|------------|------------|------------|
G |------------|------------|------------|------------|
D |------------|------------|------------|------------|
A |5-5-5-5-5-5-|5-5-5-5-5-5-|9-9-9-9-9-9-|9-9-9-9-9-9-| 1x
E |3-3-3-3-3-3-|3-3-3-3-3-3-|7-7-7-7-7-7-|7-7-7-7-7-7-|
guitar 3
e |------------|5-----------|------------|------------|
B |7p3-2/32/3-|--3-2/32/3-|----5---5---|--0---0-----|
G |------------|------------|4h7---7---7-|4---4---4/7-|
D |------------|------------|------------|------------|
A |------------|------------|------------|------------| 1x
E |------------|------------|------------|------------|
guitar 1
e |------------|------------|------------|------------|
B |7-7-7-7-7-7-|7-7-7-7-7-7-|------------|------------|
G |x-x-x-x-x-x-|x-x-x-x-x-x-|7-7-7-7-7-7-|7-7-7-7-7-7-|
D |4-4-4-4-4-4-|4-4-4-4-4-4-|x-x-x-x-x-x-|x-x-x-x-x-x-|
A |------------|------------|5-5-5-5-5-5-|5-5-5-5-5-5-| 1x
E |------------|------------|------------|------------|
guitar 2
e |------------|------------|------------|------------|
B |------------|------------|------------|------------|
G |------------|------------|------------|------------|
D |------------|------------|------------|------------|
A |9-9-9-9-9-9-|9-9-9-9-9-9-|5-5-5-5-5-5-|5-5-5-5-5-5-| 1x
E |0-0-0-0-0-0-|0-0-0-0-0-0-|3-3-3-3-3-3-|3-3-3-3-3-3-|
guitar 3
e |------------|5-----------|------------|------------|
B |7p3-2/32/3-|--3-2/32/3-|----5---5---|--0---0-----|
G |------------|------------|4h7---7---7-|4---4---4/7-|
D |------------|------------|------------|------------|
A |------------|------------|------------|------------| 1x
E |------------|------------|------------|------------|
guitar 1
e |------------|------------|------------|------------|
B |------------|------------|7-7-7-------|7-7-7-------|
G |------------|------------|------7-7-7-|------7-7-7-|
D |------------|------------|------------|------------|
A |------------|------------|------------|------------| 1x
E |------------|------------|------------|------------|
guitar 2
e |------------|------------|------------|------------|
B |------------|------------|------------|------------|
G |------------|------------|------------|------------|
D |--------x-x-|--------x-x-|--------x-x-|--------x-x-|
A |5-5-5---x-x-|7-7-7---x-x-|9-9-9---x-x-|9-9-9---x-x-| 1x
E |3-3-3---x-x-|5-5-5---x-x-|7-7-7---x-x-|7-7-7---x-x-|
guitar 1
e |------------|------------|5-5-5-5-5-5-|7----------|
B |7-7-7-------|7-7-7-------|------------|------------|
G |------7-7-7-|------7-7-7-|------------|------------|
D |------------|------------|------------|------------|
A |------------|------------|------------|------------| 1x
E |------------|------------|------------|------------|
guitar 2
e |------------|------------|------------|------------|
B |------------|------------|------------|------------|
G |------------|------------|------------|------------|
D |------------|------------|------------|------------|
A |5-5-5-------|7-7-7-------|9-9-9-9-9-9-|9----------| 1x
E |3-3-3-------|5-5-5-------|7-7-7-7-7-7-|7----------|
e |------21-21b---------|
B |---------------------|
G |---------------------|
D |-------------0-------|
A |---------------0-----|
E |0---1----------------|




Ваше мнение



Капча