Bike Scene
by Taking Back Sunday
Tabbed by Derek ([email protected])
Intro
E|-------------------------------------------------|
B|-------------------------------------------------|
G|-55555--555555/1212121212--1212121212-10/--------|
D|-55555--555555/1212121212--1212121212-10/--------|
A|-33333--333333/1010101010--1010101010-8/---------|
E|-------------------------------------------------|
Verse (Palm Mute Throughout)
I'll leave the lights down low...
Guitar 1
E|-------------------------------------------------|
B|-------------------------------------------------|
G|-------------------------------------------------|
D|-7777777777777777-55555555-33333333--------------|
A|-7777777777777777-55555555-33333333--------------|
E|-5555555555555555-33333333-11111111--------------|
Guitar 2
E|-------------------------------------------------|
B|-------------------------------------------------|
G|---5-4--------------5-4--------------------------|
D|--5----------------5-----------------------------|
A|-0-----------------------------------------------|
E|------------------3------------------------------|
(busi)ness, And maybe we can talk this over, Cuz I could be your
Guitar 1
E|-------------------------------------------------|
B|-------------------------------------------------|
G|-55555555555555555555555555555555----------------|
D|-55555555555555555555555555555555----------------|
A|-33333333333333333333333333333333----------------|
E|-------------------------------------------------|
Guitar 2
E|-------------------------------------------------|
B|-------------------------------------------------|
G|---5-4---------------5-4-------------------------|
D|--5-----------------5----------------------------|
A|-3-----------------3-----------------------------|
E|-------------------------------------------------|
Best bet....
Guitar 1
E|-------------------------------------------------|
B|-------------------------------------------------|
G|-------------------------------------------------|
D|-7777777777777777-55555555-33333333--------------|
A|-7777777777777777-55555555-33333333--------------|
E|-5555555555555555-33333333-11111111--------------|
Guitar 2
E|-------------------------------------------------|
B|-------------------------------------------------|
G|---5-4--------------5-4--------------------------|
D|--5----------------5-----------------------------|
A|-0-----------------------------------------------|
E|------------------3------------------------------|
Chorus
E|-------------------------------------------------|
B|-------------------------------------------------|
G|-55555555/77777777/99999999-10101010101010109--|
D|-55555555/77777777/99999999-10101010101010109--|
A|-33333333/55555555/77777777/8-8-8-8-8-8-8-8-7--|
E|-------------------------------------------------|
E|-------------------------------------------------|
B|-------------------------------------------------|
G|-------------------------------------------------|
D|-77777777555555553333333333333-----------------|
A|-77777777555555553333333333333(ring out chord)-|
E|-55555555333333331111111111111-----------------|
E|-------------------------------------------------|
B|-------------------------------------------------|
G|-55555555/77777777/99999999-10101010101010109--|
D|-55555555/77777777/99999999-10101010101010109--|
A|-33333333/55555555/77777777/8-8-8-8-8-8-8-8-7--|
E|-------------------------------------------------|
E|-------------------------------------------------|
B|-------------------------------------------------|
G|-------------------------------------------------|
D|-77777777555555553333333333333-3-x-------------|
A|-77777777555555553333333333333-3-x-------------|
E|-55555555333333331111111111111-1-x-------------|
2nd Verse (2 times)
E|-------------------------------------------------|
B|-------------------------------------------------|
G|-55555xxxx5555555/1212121212xxxx12121210101010--|
D|-55555xxxx5555555/1212121212xxxx12121210101010--|
A|-33333xxxx3333333/1010101010xxxx1010108-8-8-8---|
E|-------------------------------------------------|
(figure out the strumming pattern here)
E|-------------------------------------------------|
B|-------------------------------------------------|
G|-99999xxxx99999/101010---------------------------|
D|-99999xxxx99999/101010-121097/9/1097--------|
A|-77777xxxx77777/8-8-8--108-75/7/8-75--------|
E|-------------------------------------------------|
Chorus
E|-------------------------------------------------|
B|-------------------------------------------------|
G|-55555555/77777777/99999999-10101010101010109--|
D|-55555555/77777777/99999999-10101010101010109--|
A|-33333333/55555555/77777777/8-8-8-8-8-8-8-8-7--|
E|-------------------------------------------------|
E|-------------------------------------------------|
B|-------------------------------------------------|
G|-------------------------------------------------|
D|-77777777555555553333333333333-----------------|
A|-77777777555555553333333333333(ring out chord)-|
E|-55555555333333331111111111111-----------------|
E|-------------------------------------------------|
B|-------------------------------------------------|
G|-55555555/77777777/99999999-10101010101010109--|
D|-55555555/77777777/99999999-10101010101010109--|
A|-33333333/55555555/77777777/8-8-8-8-8-8-8-8-7--|
E|-------------------------------------------------|
E|-------------------------------------------------|
B|-------------------------------------------------|
G|-----------------------------------5-4-5---------|
D|-77777777555555553333333333333-3-5-4-5---------|
A|-77777777555555553333333333333-3-3-2-3---------|
E|-55555555333333331111111111111-1---------------|
Bridge (Both Guitars on Clean)
E|-------------------------------------------------|
B|-------------------------------------------------|
G|----5-4--------5-4---------5-4--------5-4--------|
D|--5-----5-----5----5-----5-----5----5----5-------|
A|-3-3---------3-3--------0-0-----0--0-0----0------|
E|-------------------------------------------------|
And this is all wrong...
E|-------------------------------------------------|
B|-------------------------------------------------|
G|----5-4-------5-4-------5-4-------5-4------------|
D|--5------5--5------5--5------5--5------5---------|
A|-3-3-------3-3-------0-0-------0-0---------------|
E|-------------------------------------------------|
I'm missing you...
(Flanger anyone?)
Guitar 1
E|-------------------------------------------------|
B|-------------------------------------------------|
G|---10-9-12-----12-10-9-10-9h10-5-----------------| 2 Times
D|-------------------------------------------------|
A|-------------------------------------------------|
E|-------------------------------------------------|
Guitar 2- I cant figure out what he's playing but for now,
keep the acoutic playing these two chords in the background
E|-----------------------------------------------8-|
B|---------------------------------------------6---|
G|-5---------------------2--------------------5-5--|
D|-5---------------------2-------------------------| 2 Times
A|-3---------------------0-------------------------|
E|-------------------------------------------------|
Guitar 1
play 1st (5) 2nd time through
E|-------------------------------------------------|
B|-------------------------------------------------|
G|-(5)-4-5-4-5-45-4-5-4-5-45-4-5-4-5-45-4/77777-5--|
D|-------------------------------------------------| 2 Times
A|-------------------------------------------------|
E|-------------------------------------------------|
Next Part in Bridge
Guitar 1- Flanger
E|-------------------------------------------------|
B|-------------------------------------------------|
G|-12-10-9-10-9h10-5------12-10-9-10-9h10-5--------|
D|-------------------------------------------------|
A|-------------------------------------------------|
E|-------------------------------------------------|
E|-------------------------------------------------|
B|-------------------------------------------------|
G|-12-10-5-----7-9-10/12---------------------------|
D|-------------------------------------------------|
A|-------------------------------------------------|
E|-------------------------------------------------|
E|-------------------------------------------------|
B|-------------------------------------------------|
G|-12-10-9-10-9h10-5------12-10-9-10-9h10-5--------|
D|-------------------------------------------------|
A|-------------------------------------------------|
E|-------------------------------------------------|
E|-------------------------------------------------|
B|-------------------------------------------------|
G|-12-10-5-------7~--------------------------------|
D|-------------------------------------------------|
A|-------------------------------------------------|
E|-------------------------------------------------|
Guitar 2
E|-------------------------------------------------|
B|-------------------------------------------------|
G|-5---------------------2-------------------------|
D|-5---------------------2-------------------------|2 times
A|-3---------------------0-------------------------|
E|-------------------------------------------------|
Ending Section
(lets bring back the distortion)
You've got me right......
E|-------------------------------------------------|
B|-------------------------------------------------|
G|-55555555555555555555555555555555----------------|
D|-55555555555555555555555555555555----------------|
A|-33333333333333333333333333333333----------------|
E|-------------------------------------------------|
Want me...
E|-------------------------------------------------|
B|-------------------------------------------------|
G|-------------------------------------------------|
D|-77777777777777777777777777777777----------------|
A|-77777777777777777777777777777777----------------|
E|-55555555555555555555555555555555----------------|
(Let's)Never talk about this...
E|-------------------------------------------------|
B|-------------------------------------------------|
G|-55555555555555555555555555555555----------------|
D|-55555555555555555555555555555555----------------|
A|-33333333333333333333333333333333----------------|
E|-------------------------------------------------|
Talk about this again because I
E|-------------------------------------------------|
B|-------------------------------------------------|
G|-------------------------------------------------|
D|-77777777777777777777777777777777----------------|
A|-77777777777777777777777777777777----------------|
E|-55555555555555555555555555555555----------------|
I didn't want it to mean that much to me..
E|-------------------------------------------------|
B|-------------------------------------------------|
G|-55555555555555555555555555555555----------------|
D|-55555555555555555555555555555555----------------|
A|-33333333333333333333333333333333----------------|
E|-------------------------------------------------|
I didnt want it to mean that much to me..
E|-------------------------------------------------|
B|-------------------------------------------------|
G|-------------------------------------------------|
D|-77777777777777777777777777777777----------------|
A|-77777777777777777777777777777777----------------|
E|-55555555555555555555555555555555----------------|
I didn't want it to mean that much to me..
Guitar 1
E|-------------------------------------------------|
B|-------------------------------------------------|
G|-55555555555555555555555555555555----------------|
D|-55555555555555555555555555555555----------------|
A|-33333333333333333333333333333333----------------|
E|-------------------------------------------------|
Guitar 2
E|-------------------------------------------------|
B|-------------------------------------------------|
G|-12-10-9-10-9h10p9--12-10-9-10-9h10p9------------|
D|-------------------------------------------------|
A|-------------------------------------------------|
E|-------------------------------------------------|
I didnt want it to mean that much to me..
Guitar 1
E|-------------------------------------------------|
B|-------------------------------------------------|
G|-------------------------------------------------|
D|-77777777777777777777777777777777----------------|
A|-77777777777777777777777777777777----------------|
E|-55555555555555555555555555555555----------------|
Guitar 2
E|-------------------------------------------------|
B|-------------------------------------------------|
G|-12-10-9-10-9h10p9--12-10-9-10-9h10p9------------|
D|-------------------------------------------------|
A|-------------------------------------------------|
E|-------------------------------------------------|
Ending
Guitar 1
E|-------------------------------------------------|
B|-------------------------------------------------|
G|-5---5---5---5---5-------5---5---5---5---5-------|
D|-5---5---5---5---5-------5---5---5---5---5-------|
A|-3---3---3---3---3-------3---3---3---3---3-------|
E|-------------------------------------------------|
Guitar 2
E|-------------------------------------------------|
B|-------------------------------------------------|
G|-12-10-9-10-9h10p9--12-10-9-10-9h10p9------------|
D|-------------------------------------------------|
A|-------------------------------------------------|
E|-------------------------------------------------|
Guitar 1
E|-------------------------------------------------|
B|-------------------------------------------------|
G|-5---5---5---5---5-------5---5---5---------------|
D|-5---5---5---5---5-------5---5---5---------------|
A|-3---3---3---3---3-------3---3---3---------------|
E|-------------------------------------------------|
Guitar 2
E|-------------------------------------------------|
B|-------------------------------------------------|
G|-12-10-9-10-9h10p9--------12-10-9----------------|
D|-------------------------------------------------|
A|-------------------------------------------------|
E|-------------------------------------------------|
There ya go...this took me some time to do so please rate...
Listen to TBS
Derek
[email protected]
[email protected]======




Ваше мнение



Капча