F#m*
E -2
A -0
D -2
G -2
H -2
E -0
Intro/Outro :
D-----------------------------------------------------------------12-11-9--
G-------------------------------------------------------11-9-11-9----------
H--/14-14-14-14-12-10--/12-12-12-12-10-9--10-10-10-10-9--------------------
D-----------------------------------------------------------------12-11-9--
G-------------------------------------------------------11-9-11-9----------
H--/14-14-14-14-15-14--/12-12-12-12-10-9--10-10-10-10-9--------------------
Проход :
A---0---0-2-4-----------------------0------
D-------------2---2-4---4---4-6-7---2--0---
G---------------------1----------------2---
A E
Темное, светлое, легкое, крепкое,
F#m* (A) D
Пиво ячменное, вкусное, пенное.
Один на диване, в компании, в бане,
За дела успех выпить не грех.
Янтарным напитком наполнит с избытком
Бокалы и кружки друзьям и подружкам.
О Пиве душистом, холодном и чистом
Не забывай, наливай, напевай.
Веселый напиток, вполне симпатичный.
На вкус и на цвет очень приличный.
Наутро излечит, а к ночи бодрит,
А если в обед - разовьет аппетит.
Нам с Пивом по жизни клевее и лучше
И сразу тусовка становится круче.
Пусть Пиво течет бесконечной рекой,
Пусть будет бокал всегда под рукой.




Ваше мнение



Капча