SYSTEM OF A DOWN - WAR

Tuning C G C F A D

Intro

|-----------------| |------------------|
|---------x-x-x-x-| |----------8---8---|
|-8-7-8-7-x-x-x-x-| |-8-7-8-7----7---7-|
|-0-0-0-0-x-x-x-x-| |-0-0-0-0----------|
|-----------------| |------------------|
|-----------------|x3 |------------------|x1

|-------------------------------|
|---------x-x-x-x-x-x-x-x-x-x-x-|
|-8-7-8-7-x-x-x-x-x-x-x-x-x-x-x-|
|-0-0-0-0-x-x-x-x-x-x-x-x-x-x-x-|
|-------------------------------|
|-------------------------------|
Last time

Chorus

|-----------------------------------------------------|
|-----------------------------------------------------|
|----------------------------10------------11---------|
|----------------------------x-------------x----------|
|-0-6-0-0-6-0-0-8-0-0-6-0-0--8--0-0-6-0-0--9--0-0-6-0-|
|-0-6-0-0-6-0-0-8-0-0-6-0-0-----0-0-6-0-0-----0-0-6-0-|

Verse

|--------------------------------------------|
|--------------------------------------------|
|--------------------------------------------|
|--------------------------------------------|
|-1-0-1-0--1-0-1-0--1-0-1-0--1-0-1-0-5-0-5-0-|
|-1-0-1-0--1-0-1-0--1-0-1-0--1-0-1-0-5-0-5-0-|

|-----------------------------------------------------------------|
|-----------------------------------------------------------------|
|-----------------------------------------------------------------|
|-----------------------------------------------------------------|
|-1-0-1-0-x-x-x-x-1-0-1-0-x-x-x-x-1-0-1-0-x-x-x-x-1-0-1-0-5-0-5-0-|
|-1-0-1-0-x-x-x-x-1-0-1-0-x-x-x-x-1-0-1-0-x-x-x-x-1-0-1-0-5-0-5-0-|

Before Bridge

|----------------------------------------------------------------|
|----------------------------------------------------------------|
|----------------------------------------------------------------|
|----------------------------------10-10-----------11-11---------|
|-0-0-6-6-0-0-6-0-0-8-8-0-0-6-0-0--8--8-0-0-6-0-0--9--9--0-0-6-0-|
|-0-0-6-6-0-0-6-0-0-8-8-0-0-6-0-0-------0-0-6-0-0--------0-0-6-0-|
p.m...........................................................

Bridge

|------------------------------------|
|------------------------------------|
|---10-8-7---7-8-10---10-8-7---6-7-9-|
|-0--------0--------0--------0-------|
|------------------------------------|
|------------------------------------|




Ваше мнение



Капча