War ?-System Of A Down
System Of A Down
Drop C:
C G C F A D
Intro:
d----------------x--x-----------------x--x--x--x--------------x--x--x----
a----------------x--x-----------------x--x--x--x--------------x--x--x----
f-8--7--8--7--8--x--x-----8--7--8--7--x--x--x--x--8--7--8--7--x--x--x----
c-0-----0--0--------------0--0--0--0--------------0--0--0--0-----------0-
g----------------------0-------------------------------------------------
c------------------------------------------------------------------------
d---------------------------------------x--x--x--x--------------x--x--x--x--
a---------------------------------------x--x--x--x--------------x--x--x--x--
f-8--7--8--7--12--7--12--7--8--7--8--7--x--x--x--x--8--7--8--7--x--x--x--x--
c-0--0--0--0---0--0---0--0--0--0--0--0--------------0--0--0--0--------------
g---------------------------------------------------------------------------
c---------------------------------------------------------------------------
d-------------x--x--x--x--x---x----x-----x-----x-----x--x--x--x--x--x--x----
a-------------x--x--x--x--x---x----x-----x-----x----------------------------
f-8--7--8--7--x--x--x--x--------x-----x-----x-----x-------------------------
c-0--0--0--0--------------------x-----x-----x-----x-------------------------
g-------------------------------------------------------------------------0-
c-------------------------------------------------------------------------0-
Fig. 1
d-----------------------------------------------------------------
a-----------------------------------------------------------------
f------------------------------------1010------------1111---------
c-------------------------------------x-x-------------x-x---------
g---0-6-6-0-0-6-0---0-8-8-0-0-6-0---0-8-8-0-0-6-0---0-9-9-0-0-6-0-
c---0-6-6-0-0-6-0---0-8-8-0-0-6-0---0-----0-0-6-0---0-----0-0-6-0-
d-----------------------------------------------------------------
a-----------------------------------------------------------------
f------------------------------------1010------------1111---------
c-------------------------------------x-x-------------x-x---------
g---0-6-6-0-0-6-0---0-8-8-0-0-6-0---0-8-8-0-0-6-0---0-9-9-0-0-6-0-
c---0-6-6-0-0-6-0---0-8-8-0-0-6-0---0-----0-0-6-0---0-----0-0-6-0-
Verse:
x2, pm
d-----------------------------------------------------------------
a-----------------------------------------------------------------
f-----------------------------------------------------------------
c-----------------------------------------------------------------
g-1-0-1-0---------1-0-1-0---------1-0-1-0---------1-0-1-0-5-0-5-0-
c-1-0-1-0---------1-0-1-0---------1-0-1-0---------1-0-1-0-5-0-5-0-
then.
d-------------x---------------x---------------x-x-----------------
a-------------x---------------x---------------x-x-----------------
f-------------x---------------x---------------x-x-----------------
c-----------------------------------------------------------------
g-1-0-1-0---------1-0-1-0---------1-0-1-0-x-x-----1-0-1-0-5-0-5-0-
c-1-0-1-0-x-x---x-1-0-1-0-x-x---x-1-0-1-0-x-x-----1-0-1-0-5-0-5-0-
d-------------x---------------x---------------x-x-x-x-x-x-x-x-x---
a-------------x---------------x---------------x-x-----------------
f-------------x---------------x---------------x-x-----------------
c-----------------------------------------------------------------
g-1-0-1-0---------1-0-1-0---------1-0-1-0-x-x-------------------0-
c-1-0-1-0-x-x---x-1-0-1-0-x-x---x-1-0-1-0-x-x-------------------0-
Chorus: Fig. 1
Verse 2:
d-----------------------------------------------------------------
a-----------------------------------------------------------------
f-----------------------------------------------------------------
c-----------------------------------------------------------------
g-1-0-1-0---------1-0-/5----------1-0-1-0---------1-0-1-0-5-0-5-0-
c-1-0-1-0---------1-0-/5----------1-0-1-0---------1-0-1-0-5-0-5-0-
d---------x-x-x-x-------------x-x---------x-x-x-x-x-x-x-x-x-x-x---
a---------x-x-x-x-------------x-x---------x-x-x-x-----------------
f---------x-x-x-x-------------x-x---------x-x-x-x-----------------
c-----------------------------------------------------------------
g-1-0-1-0---------1-0-/5----------1-0-1-0-----------------------0-
c-1-0-1-0---------1-0-/5--0-0-----1-0-1-0-----------------------0-
Chorus: Fig. 1
before Interlude:
pm
d-----------------------------------------------------------------
a-----------------------------------------------------------------
f-----------------------------------------------------------------
c------------------------------------1010------------1111---------
g-0-0-6-6-0-0-6-0-0-0-8-8-0-0-6-0-0-0-8-8-0-0-6-0-0-0-9-9-0-0-6-0-
c-0-0-6-6-0-0-6-0-0-0-8-8-0-0-6-0-0-0-----0-0-6-0-0-0-----0-0-6-0-
d-----------------------------------------------------------------
a-----------------------------------------------------------------
f------------------------------------1010-------------------------
c-------------------------------------x-x------------1111---------
g-0-0-6-6-0-0-6-0-0-0-8-8-0-0-6-0-0-0-8-8-0-0-6-0-0-0-9-9-0-0-6-0-
c-0-0-6-6-0-0-6-0-0-0-8-8-0-0-6-0-0-0-----0-0-6-0-0-0-----0-0-6-0-
Interlude:
x4, pm
d-------------------------------------
a-------------------------------------
f---10-8-7---7-8-10---10-8-7---6-7-9--
c-0--------0--------0--------0--------
g-------------------------------------
c-------------------------------------
Bridge: x6
pm
d--------------------------------------
a--------------------------------------
f---10-8-7---10-8-7---10-8-7---10-8-7--
c-0--------0--------0--------0---------
g--------------------------------------
c--------------------------------------
then
d-------------------------------------------------------------------
a-------------------------------------------------------------------
f---10-8-7---10-8-7---6-7-9---6-7-9---6-7-9---6-7-9---6-7-9---6-7-9-
c-0--------0--------0-------0-------0-------0-------0-------0-------
g-------------------------------------------------------------------
c-------------------------------------------------------------------
x8, pm
d------------------------------------
a-------10---------------10----------
f---6-7------6-7-9---6-7------6-7-9--
c-0--------0-------0--------0--------
g------------------------------------
c------------------------------------
x2, pm
d-----------------------------------------------------------------
a-----------------------------------------------------------------
f---6-7-9---6-7-9---6-7-9---6-7-9---6-7-9---6-7-9---6-7-9---6-7-9-
c-0-------0-------0-------0-------0-------0-------0-------0-------
g-----------------------------------------------------------------
c-----------------------------------------------------------------
x4, pm
d--------------------------------------
a--------------------------------------
f---10-8-7---10-8-7---10-8-7---10-8-7--
c-0--------0--------0--------0---------
g--------------------------------------
c--------------------------------------
Chorus: Fig. 1
Outro:
pm
d-----------------------------------------------------------------
a-----------------------------------------------------------------
f-----------------------------------------------------------------
c------------------------------------1010------------1111---------
g-0-0-6-6-0-0-6-0-0-0-8-8-0-0-6-0-0-0-8-8-0-0-6-0-0-0-9-9-0-0-6-0-
c-0-0-6-6-0-0-6-0-0-0-8-8-0-0-6-0-0-0-----0-0-6-0-0-0-----0-0-6-0-
d-----------------------------------------------------------------
a-----------------------------------------------------------------
f------------------------------------1010-------------------------
c-------------------------------------x-x------------1111---------
g-0-0-6-6-0-0-6-0-0-0-8-8-0-0-6-0-0-0-8-8-0-0-6-0-0-0-9-9-0-0-6-0-
c-0-0-6-6-0-0-6-0-0-0-8-8-0-0-6-0-0-0-----0-0-6-0-0-0-----0-0-6-0-
that’s all
trevor jones
[email protected]




Ваше мнение



Капча