SYSTEM OF A DOWN
TOXICITY
CORRECT VERSION

by Slipknot #7
Tuning C G C F A D
INTRO
Let ring-----------------------------------------
Slight pm----------------------------------------
e|---------------------------------------------------------
B|--------10------10------10------10-----10-----10---------
G|----7-------7--------7-------7------7------7-------------
D|---------------------------------------------------------
A|---------------------------------------------------------
E|---------------------------------------------------------
Let ring----------------------------------------------
Slight pm---------------------------------------------
e|---------------------------------------------------------
B|-------13-------13-------13-------13------13------13-----
G|---10------10-------10--------10------10------10---------
D|---------------------------------------------------------
A|---------------------------------------------------------
E|---------------------------------------------------------
Let ring--------------------------------------
Slight pm-------------------------------------
e|---------------------------------------------------------
B|----10----10------10--11-----11--10------10--------------
G|-7-----7-------7----------7----------7------------------
D|---------------------------------------------------------
A|---------------------------------------------------------
E|---------------------------------------------------------
Let ring--------------------------------------------
Slight pm-------------------------------------------
e|---------------------------------------------------------
B|-------13-------15-----15--13-------13---11------11------
G|---10------10-------10---------10------------10----------
D|---------------------------------------------------------
A|---------------------------------------------------------
E|---------------------------------------------------------
CHORUS
w/dist pm(----------)
e|---------------------------------------------------------
B|---------------------------------------------------------
G|---------------------------------------------------------
D|---0----------------------------3-2-0-2--0---------------
A|---0----------------------------3-2-0-2--0---------------
E|---0----------------------------3-2-0-2--0---------------
e|---------------------------------------------------------
B|---------------------------------------------------------
G|---------------------------------------------------------
D|--8--------8--8--8--7----------7--7--7-------------------
A|--8--------8--8--8--7----------7--7--7-------------------
E|--8--------8--8--8--7----------7--7--7-------------------
Pm(----------------------------------------------)
e|---------------------------------------------------------
B|---------------------------------------------------------
G|---------------------------------------------------------
D|-3-2-0-2-0-0-3-2-0-2-0-0-3-2-0-2-0-0-3-2-0-2-0-0---------
A|-3-2-0-2-0-0-3-2-0-2-0-0-3-2-0-2-0-0-3-2-0-2-0-0---------
E|-3-2-0-2-0-0-3-2-0-2-0-0-3-2-0-2-0-0-3-2-0-2-0-0---------
REPEAT INTRO
VERSE
Let ring--------------------------------------------
e|---------------------------------------------------------
B|--------10------10------10------10-----10-----10---------
G|----7-------7--------7-------7------7------7-------------
D|---------------------------------------------------------
A|---------------------------------------------------------
E|---------------------------------------------------------
Let ring-----------------------------------
e|--------------12-------13-------12-----------------------
B|-------13-------13-------13-------13---------------------
G|---10------10-------10--------10------10----------------
D|---------------------------------------------------------
A|---------------------------------------------------------
E|---------------------------------------------------------
Let ring-----------------------------------------
e|--------------------------------------------------------
B|----10----10------10--11-----11--10------10--------------
G|-7-----7-------7----------7----------7------------------
D|---------------------------------------------------------
A|---------------------------------------------------------
E|---------------------------------------------------------
Let ring--------------------------------------------
e|---------------------------------------------------------
B|-------13-------15-----15--13-------13---11------11------
G|---10------10-------10---------10------------10----------
D|---------------------------------------------------------
A|---------------------------------------------------------
E|---------------------------------------------------------
INTERLUDE
e|---------------------------------------------------------
B|---------------------------------------------------------
G|---------------------------------------------------------
D|---------------------------------------------------------
A|--5-5-5-5-5-5-8-5-5-7b-----------------------------------
E|---------------------------------------------------------
e|---------------------------------------------------------
B|---------------------------------------------------------
G|---------------------------------------------------------
D|---------------------------------------------------------
A|--5-5-5-5-5-5-8-5-5-7------------------------------------
E|---------------------------------------------------------
Pm(-------------------------------------------------)
e|---------------------------------------------------------
B|---------------------------------------------------------
G|---------------------------------------------------------
D|-3-0-0-0-0-0--3-0-0-0-0-0--3-0-0-0-0-0--3-0-0-0-0-0------
A|-3-0-0-0-0-0--3-0-0-0-0-0--3-0-0-0-0-0--3-0-0-0-0-0------
E|-3-0-0-0-0-0--3-0-0-0-0-0--3-0-0-0-0-0--3-0-0-0-0-0------
pm(----------------------)
e|---------------------------------------------------------
B|---------------------------------------------------------
G|---------------------------------------------------------
D|---------------------------------------------------------
A|---------------------------------------------------------
E|--0--0-0-0-0-3-2-0-2b------------------------------------
pm(----------------------)
e|---------------------------------------------------------
B|---------------------------------------------------------
G|---------------------------------------------------------
D|---------------------------------------------------------
A|---------------------------------------------------------
E|--0--0-0-0-0-3-2-0-2b------------------------------------
Pm(-------------------------------------------------)
e|---------------------------------------------------------
B|---------------------------------------------------------
G|---------------------------------------------------------
D|-3-0-0-0-0-0--3-0-0-0-0-0--3-0-0-0-0-0--3-0-0-0-0-0------
A|-3-0-0-0-0-0--3-0-0-0-0-0--3-0-0-0-0-0--3-0-0-0-0-0------
E|-3-0-0-0-0-0--3-0-0-0-0-0--3-0-0-0-0-0--3-0-0-0-0-0------
Pm(-------------------------------------------------)
e|---------------------------------------------------------
B|---------------------------------------------------------
G|---------------------------------------------------------
D|-3-0-0-0-0-0--3-0-0-0-0-0--3-0-0-0-0-0--3-0-0-0-0-0------
A|-3-0-0-0-0-0--3-0-0-0-0-0--3-0-0-0-0-0--3-0-0-0-0-0------
E|-3-0-0-0-0-0--3-0-0-0-0-0--3-0-0-0-0-0--3-0-0-0-0-0------
OUTRO
pm(----------------------)
e|---------------------------------------------------------
B|---------------------------------------------------------
G|---------------------------------------------------------
D|---------------------------------------------------------
A|---------------------------------------------------------
E|--0--0-0-0-0-3-2-0-2b------------------------------------
pm(----------------------)
e|---------------------------------------------------------
B|---------------------------------------------------------
G|---------------------------------------------------------
D|---------------------------------------------------------
A|---------------------------------------------------------
E|--0--0-0-0-0-3-2-0-2b------------------------------------
pm(----------------------)
e|---------------------------------------------------------
B|---------------------------------------------------------
G|---------------------------------------------------------
D|---------------------------------------------------------
A|---------------------------------------------------------
E|--0--0-0-0-0-3-2-0-2b------------------------------------
pm(----------------------)
e|---------------------------------------------------------
B|---------------------------------------------------------
G|---------------------------------------------------------
D|---------------------------------------------------------
A|---------------------------------------------------------
E|--0--0-0-0-0-3-2-0-2-------------------------------------
So there you go
Straight from the book




Ваше мнение



Капча