Band: System of a Down
Song: Toxicity
Album: Toxicity
Tabbed By: FaTSkUnK

Drop D

Intro

e|----------------------------------------------------------|
B|---8---8---8---8---8---8------11---11---11---11---11---11-|
G|-5---5---5---5---5---5-----/8----8----8----8----8----8----|
D|----------------------------------------------------------|
A|----------------------------------------------------------|
D|----------------------------------------------------------|

e|---------------------------------8---8---------------|
B|---8---8---8-9---9-8---8----11---------11---11-8---8-|
G|-5---5---5-----5-----5----8----8---8------8------8---|
D|-----------------------------------------------------|
A|-----------------------------------------------------|
D|-----------------------------------------------------|

Chorus
X2
e|---------------------------------------------------------|
B|---------------------------------------------------------|
G|---------------------------------------------------------|
D|-10---13/12--10h12--10---6--6-6--6--6-6---5--5-5--5--5-5-|
A|-10---13/12--10h12--10---6--6-6--6--6-6---5--5-5--5--5-5-|
D|-10---13/12--10h12--10---6--6-6--6--6-6---5--5-5--5--5-5-|

X2
e|-------------------------------------|---------------------------------|
B|-------------------------------------|---------------------------------|
G|-------------------------------------|---------------------------------|
D|-10---13/12--10h12-10h12-10h12-10h12-|-6--6-6--6--6-6---5--5-5--5--5-5-|
A|-10---13/12--10h12-10h12-10h12-10h12-|-6--6-6--6--6-6---5--5-5--5--5-5-|
D|-10---13/12--10h12-10h12-10h12-10h12-|-6--6-6--6--6-6---5--5-5--5--5-5-|
pm.................................

e|---------------------------------------------------------|
B|---------------------------------------------------------|
G|---------------------------------------------------------|
D|-10---13/12--10h12--10---6--6-6--6--6-6---5--5-5--5--5-5-|
A|-10---13/12--10h12--10---6--6-6--6--6-6---5--5-5--5--5-5-|
D|-10---13/12--10h12--10---6--6-6--6--6-6---5--5-5--5--5-5-|

Verse

e|----------------------------------------------------------|
B|---8---8---8---8---8---8------11---11---11---11---11---11-|
G|-5---5---5---5---5---5-----/8----8----8----8----8----8----|
D|----------------------------------------------------------|
A|----------------------------------------------------------|
D|----------------------------------------------------------|

e|---------------------------------8---8---------------|
B|---8---8---8-9---9-8---8----11---------11---11-8---8-|
G|-5---5---5-----5-----5----8----8---8------8------8---|
D|-----------------------------------------------------|
A|-----------------------------------------------------|
D|-----------------------------------------------------|

e|----------------------------------10------11------10------|
B|---8---8---8---8---8---8-----11--------11------11------11-|
G|-5---5---5---5---5---5-----8----8----8-------8-------8----|
D|----------------------------------------------------------|
A|----------------------------------------------------------|
D|----------------------------------------------------------|

- Chorus
- Verse
- Chorus

Heavy part

e|-----------------------|------------------------------|
B|-----------------------|------------------------------|
G|-----------------------|------------------------------|
D|-----------------------|-13/12--10-10-10-10-13/12--10-|
A|-3--3-3--3-3-6-3-3--5b-|-13/12--10-10-10-10-13/12--10-|
D|-----------------------|-13/12--10-10-10-10-13/12--10-|

e|-------------------------------|------------------------------|
B|-------------------------------|------------------------------|
G|-------------------------------|------------------------------|
D|-10--10-10--10-10-13-10-10-----|-13/12--10-10-10-10-13/12--10-|
A|-10--10-10--10-10-13-10-10-12b-|-13/12--10-10-10-10-13/12--10-|
E|-10--10-10--10-10-13-10-10-12b-|-13/12--10-10-10-10-13/12--10-|

- Chorus

e|-----------------------------------------------------|
B|-----------------------------------------------------|
G|-----------------------------------------------------|
D|-10--10--10-13-10------10--10-10--10-10-13-10-10-----|
A|-10--10--10-13-10-12b--10--10-10--10-10-13-10-10-12b-|
E|-10--10--10-13-10-12b--10--10-10--10-10-13-10-10-12b-|




Ваше мнение



Капча