System of a down-Toxicity
Tune- CGCFAD

Intro
---------------------------------------------------------------------------------
---------------------------------------------------------------------------------
---9--9--9--9--9--9--/---12-----12--12--12--12--12--12-----9--9--9-10--10--9---9-
---------------------------------------------------------------------------------
-7--7--7--7--7--7---/10-----10--10--10---10--10--10-----7--7--7-------7------7---
---------------------------------------------------------------------------------

-------------------------------------------------
-------------------------------------------------
----12-13----13-12----12-10----10-----------------
--------------------------------------------------
-10-------10-------10-------10-------------------
--------------------------------------------------

Intro/Chorus
----------------------------------------------------------------------------------
----------------------------------------------------------------------------------
----------------------------------------------------------------------------------
-2--3-3-2-2-0--8-8-7-7--2--3-3-2-2-0--8-8-7-7--3-0-0-2-0-0-3-0-0-2-0-0-3-0-0-2-0-0
-2--3-3-2-2-0--8-8-7-7--2--3-3-2-2-0--8-8-7-7--3-0-0-2-0-0-3-0-0-2-0-0-3-0-0-2-0-0
-2--3-3-2-2-0--8-8-7-7--2--3-3-2-2-0--8-8-7-7--3-0-0-2-0-0-3-0-0-2-0-0-3-0-0-2-0-0

---------------------------------
---------------------------------
---------------------------------
-8-8-7-7--2--3-3-2-2-0-8-8-7-7---
-8-8-7-7--2--3-3-2-2-0-8-8-7-7---
-8-8-7-7--2--3-3-2-2-0-8-8-7-7---

Verse
-----------------------------------------------------------------------------------
-----10-10-10-10-10-10--/------13--13--13--13--13--13--13-----10-10-10-11--11-10---
---9--9--9--9--9--9-----/---12---12--12--12--12--12--12-----9--9--9------9---------
-----------------------------------------------------------------------------------
-----------------------------------------------------------------------------------
-----------------------------------------------------------------------------------

-------------------------------------------------------
---10-----13-14----14-13----13-11---11-----------------
-9----12--------12-------12------12--------------------
-------------------------------------------------------
-------------------------------------------------------
-------------------------------------------------------
Bridge.1
-------------------------------------------
-------------------------------------------
-------------------------------------------
-------------------------------------------
-------------------------------------------
-7-7-7-7-7-10-7-9--------------------------

Bridge 2. 6 or 7 times
--------------------------
--------------------------
--------------------------
-3-0-0-2-0-0--------------
-3-0-0-2-0-0--------------
-3-0-0-2-0-0--------------

Bridge.3
---------------------------------
---------------------------------
--------------^------------------
-2-0-0-0-3-0--2------------------
-2-0-0-0-3-0---------------------
-2-0-0-0-3-0---------------------




Ваше мнение



Капча