Artist: System of a Down
Album: Toxicity
Song Name: Toxicity
Tabbed by: Jeff Tiemann, with help from Eric Tiemann
Email: [email protected]
Tuning: Drop C, Like ALL System of a Down songs
This tab is 100% CORRECT, I hope you like it because I spent a LOT of time
getting it EXACTLY right. This is also the Easiest way to play it and it sounds
the best. There is no better sounding version than this one. You cannot possibly
say that this tab is wrong. I spent a year getting it exactly right.
Intro: Palm Muted
D|----------------------------------------|
A|----------------------------------------|
F|-----2-----2-----2-----2-----2------2---|
C|--0-----0-----0-----0-----0-----0-------|
G|----------------------------------------|
C|----------------------------------------|
D|----------------------------------------|
A|-----1-----1-----1-----1-----1-----1----|
F|----------------------------------------|
C|--3-----3-----3-----3-----3-----3-------|
G|----------------------------------------|
C|----------------------------------------|
D|---------------------------------------------------------------------------|
A|------------------------------------1-----3-----3-1-----1------------------|
F|-----2-----2-----2-3---3-2----2----------------------------2------2--------|
C|--0-----0-----0------0-----0-----3-----3-----3-------3--------3------------|
G|---------------------------------------------------------------------------|
C|---------------------------------------------------------------------------|
Heavy Part:
D|--------------------------------------|
A|--------------------------------------|
F|--------------------------------------|
C|--------------------------------------|
G|--0---3p2-0h2-0h2----8-88-8--7-77-7---|
C|--0---3p2-0h2-0h2----8-88-8--7-77-7---|
Fast Heavy Part:
D|---------------------------------------------------------------------------|
A|---------------------------------------------------------------------------|
F|---------------------------------------------------------------------------|
C|---------------------------------------------------------------------------|
G|--3p20h20h2-3p20h20h2-3p20h20h2-3p20h20h2--8-88-8--7-77-7------------------|
C|--3p20h20h2-3p20h20h2-3p20h20h2-3p20h20h2--8-88-8--7-77-7------------------|
D|---------------------------------------------------------------------------|
A|---------------------------------------------------------------------------|
F|---------------------------------------------------------------------------|
C|---------------------------------------------------------------------------|
G|--0---3p2-0h2-0h2----8-88-8--7-77-7----------------------------------------|
C|--0---3p2-0h2-0h2----8-88-8--7-77-7----------------------------------------|
Verse: Same as Intro, but not Palm Muted
Chorus:
D|---------------------------------------------------------------------------|
A|---------------------------------------------------------------------------|
F|---------------------------------------------------------------------------|
C|---------------------------------------------------------------------------|
G|--0---3p2-0h2-0h2----8-88-8--7-77-7----------------------------------------|
C|--0---3p2-0h2-0h2----8-88-8--7-77-7----------------------------------------|
Disorder, Disorder...
Interlude:
D|---------------------------------------------------------------------------|
A|---------------------------------------------------------------------------|
F|---------------------------------------------------------------------------|
C|---------------------------------------------------------------------------|
G|---------------------------------------------------------------------------|
C|--12-121212-15-1212-14-----------------------------------------------------|
Outro:
D|---------------------------------------------------------------------------|
A|---------------------------------------------------------------------------|
F|---------------------------------------------------------------------------|
C|---------------------------------------------------------------------------|
G|---------------------------------------------------------------------------|
C|--0-0-0-3-0-2--0-0-0-000-3-0-2---------------------------------------------|

| h hammer-on
| p pull-off
Intro: (x1)
Heavy Part: (x2)
Fast Heavy Part: (x1)
Heavy Part: (x1)
Verse: (x3)
Heavy Part: (x2)
Fast Heavy Part: (x1)
Heavy Part: (x1)
Verse: (x3)
Heavy Part: (x2)
Fast Heavy Part: (x1)
Heavy Part: (x1)
Interlude: (x4)
Fast Heavy Part: (x4)
Outro: (x4)
Fast Heavy Part: (x4)
Heavy Part: (x2)
Fast Heavy Part: (x1)
Heavy Part: (x1)
Outro: (x2)




Ваше мнение



Капча