Author/Artist: System Of A Down
Title: Toxicity
Album: Toxicity
Transcribed by: darksavior
Email: [email protected]
This song's tuning is drop D then all strings down another whole step
(C-G-C-F-A-D)
Intro:
---5---5---5---5---5---5-----8---8---8---8---8---8----------------------------
-3---3---3---3---3---3-----6---6---6---6---6---6------------------------------
------------------------------------------------------------------------------
------------------------------------------------------------------------------
------------------------------------------------------------------------------
------------------------------------------------------------------------------
------------------------------------------------------------------------------
---5---5---5---6---6--5---5---8---10---10--8---8---6---6----------------------
-3---3---3---3---3------3---6---6----6-------6---6---6------------------------
------------------------------------------------------------------------------
------------------------------------------------------------------------------
------------------------------------------------------------------------------
------------------------------------------------------------------------------
Chorus: This part is played loads of times really fast.
------------------------------------------|-----------------------------------
------------------------------------------|-----------------------------------
------------------------------------------|-----------------------------------
-0-----3-2-0-2-0----3--3-3-3---2--2-2-2---|-----2-3-0-2-3-0-2-3-0-------------
-0-----3-2-0-2-0----3--3-3-3---2--2-2-2-x2|-----2-3-0-2-3-0-2-3-0-------------
-0-----3-2-0-2-0----3--3-3-3---2--2-2-2---|-----2-3-0-2-3-0-2-3-0-------------
------------------------------------------------------------------------------
------------------------------------------------------------------------------
------------------------------------------------------------------------------
-3--3-3-3---2--2-2-2-----0------3-2-0-2-0----3--3-3-3----2--2-2-2-------------
-3--3-3-3---2--2-2-2-----0------3-2-0-2-0----3--3-3-3----2--2-2-2-------------
-3--3-3-3---2--2-2-2-----0------3-2-0-2-0----3--3-3-3----2--2-2-2-------------
Then do Intro 3 times, then chorus again, then Intro 3 times then chorus again,
then this:
Bridge:
-------------------------------|----------------------------------------------
-------------------------------|----------------------------------------------
-------------------------------|----------------------------------------------
-------------------------------|----------------------------------------------
-------------------------------|----------------------------------------------
-12--12-12-12-12-15-12-14b-1/4-|x4--------------------------------------------
Next is this psycho part, very fast and played loads of times.
------------|-----------------------------------------------------------------
------------|-----------------------------------------------------------------
------------|-----------------------------------------------------------------
-0-0-0-3-2-0|-----------------------------------------------------------------
-0-0-0-3-2-0|-----------------------------------------------------------------
-0-0-0-3-2-0|-----------------------------------------------------------------
After that (listen to the song for timing) play this:
Riff 5:
-------------------------|----------------------------------------------------
-------------------------|----------------------------------------------------
-------------------------|----------------------------------------------------
-0--0-0-0-0--3-2-0-2-----|----------------------------------------------------
-0--0-0-0-0--3-2-0-2-----|----------------------------------------------------
-0--0-0-0-0--3-2-0-2b-1/4|x4--------------------------------------------------
Then the psycho part again, then do the chorus again, and then the psycho part
again, then this ending part.
-------------------|----------------------------------------------------------
-------------------|----------------------------------------------------------
-------------------|----------------------------------------------------------
-0--0-0-3-0-2------|----------------------------------------------------------
-0--0-0-3-0-2------|----------------------------------------------------------
-0--0-0-3-0-2b-1/4-|-x4-------------------------------------------------------
ORDER:
Intro
Chorus
Intro x3
Chorus
Intro x3
Chorus
Bridge
Psycho part
Riff 5
Psycho
Chorus
Psycho
Ending
If you have questons, comments or corrections, please e-mail to [email protected]




Ваше мнение



Капча