Toxicity - System Of A Down Live At the Big Day Out
Tunning (CGCFAD)
Tabbed Live By Jeremy Antoine ([email protected])
intro:There really is two guitars on the intro on toxicity
cd but this is the he did it live
PLEASE RATE THIS TAB
D----------------------------------------------|
A----------------------------------------------|
F----------------------------------------------|
C---------7--7--7--7--7--7--10-10-10-10-10-10--|
G-------5--5--5--5--5--5---8--8--8--8--8--8----|
C----------------------------------------------|
----------------------------------------------|
----------------------------------------------|
----------------------------------------------|
---------7--7--8----7--------10-12--10---8----|
-------5--5--55---55---55---8--8--88---88--88-|
----------------------------------------------|
chorus: Distortion
----------------------------------------------|
----------------------------------------------|
----------------------------------------------|
------0----33220----8-8-7-7-------------------| x2
------0----33220----8-8-7-7-------------------|
------0----33220----8-8-7-7-------------------|
-----------------------------------------------|
-----------------------------------------------|
-----------------------------------------------|
------332200332200332200332200------8-8-7-7----|
------332200332200332200332200------8-8-7-7----|
------332200332200332200332200------8-8-7-7----|
-----------p.m.--------------------------|
-----------------------------------------------|
-----------------------------------------------|
-----------------------------------------------|
------0----33220----8-8-7-7--------------------|
------0----33220----8-8-7-7--------------------|
------0----33220----8-8-7-7--------------------|
verse:
----------------------------------------------|
----------------------------------------------|
----------------------------------------------|
---------7--7--7--7--7--7--10-10-10-10-10-10--|
-------5--5--5--5--5--5---8--8--8--8--8--8----|
----------------------------------------------|
----------------------------------------------|
----------------------------------------------|
----------------------------------------------|
---------7--7--8----7--------10-12--10---8----|
-------5--5--55---55---55---8--8--88---88--88-|
----------------------------------------------|
----------------------------------------------|
----------------------------------------------|
------------------------------9----10----9----|
---------7--7--7--7--7--7--10--10----10---10--|
-------5--5--5--5--5--5---8--8---8-----8----8-|
----------------------------------------------|
----------------------------------------------|
----------------------------------------------|
----------------------------------------------|
---------7--7--8----7--------10-12--10---8----|
-------5--5--55---55---55---8--8--88---88--88-|
----------------------------------------------|
----------------------------------------------|
----------------------------------------------|
------------------------------9----10----9----|
---------7--7--7--7--7--7--10--10----10---10--|
-------5--5--5--5--5--5---8--8---8-----8----8-|
----------------------------------------------|
----------------------------------------------|
----------------------------------------------|
----------------------------------------------|
---------7--7--8----7--------10-12--10---8----|
-------5--5--55---55---55---8--8--88---88--88-|
----------------------------------------------|
bridge:
THIS IS THE COOL PART WHERE HE PLAYS IT WITH A
WATER BOTTLE
----------------------------------------------|
----------------------------------------------|
----------------------------------------------|
------12-12121212-151214----------------------| x4
------12-12121212-151214----------------------|
------12-12121212-151214----------------------|
---------------------------------------------------|
---------------------------------------------------|
---------------------------------------------------|
------332200332200332200332200---------------------| x2
------332200332200332200332200---------------------|
------332200332200332200332200---------------------|
---------p.m.--------------------------------|
---------------------------------------------------|
---------------------------------------------------|
---------------------------------------------------|
------0-0000-302------0-0000-302-------------------| x2
------0-0000-302------0-0000-302-------------------|
------0-0000-302------0-0000-302-------------------|
---p.m.-- ---p.m.----------------------|
---------------------------------------------------|
---------------------------------------------------|
---------------------------------------------------|
------332200332200332200332200---------------------| x2
------332200332200332200332200---------------------|
------332200332200332200332200---------------------|
---------p.m.--------------------------------|
ending:
---------------------------------------------------|
---------------------------------------------------|
---------------------------------------------------|
------332200332200332200332200---------------------| x2
------332200332200332200332200---------------------|
------332200332200332200332200---------------------|
---------p.m.--------------------------------|
---------------------------------------------------|
---------------------------------------------------|
---------------------------------------------------|
------0-0000-302------0-0000-302-------------------| x2
------0-0000-302------0-0000-302-------------------|
------0-0000-302------0-0000-302-------------------|
---p.m.-- ---p.m.----------------------|




Ваше мнение



Капча