SUITE-PEE
By System Of A Down
drop c tuning (CGCFad)

intro
G|-4-4-3-2-3-4-4-7-7-6-5-6-7-7---------------7-7-7-6-5-6-7-7-|
C|-----------------------------7-7-6-5-6-7-7-----------------|
these are all harmonics

main riff
G|-0-0-0-0-1-0-1-0-0-0-0-1-0-1-|
C|-0-0-0-0-1-0-1-0-0-0-0-1-0-1-|

main riff fill
C|-6^-|
G|-6^-|
after every fourth time

verse riff
C|-0-0-0-0-1-0-1-|

verse fill
e|-9^-|
every fourth time

bridge
G|-1-0-0-0-5-4--|
C|-1-0-0-0-5-4--|
sometimes palmuted

bridge fill
C|-5-4*^--|
G|--------|
*=pinch harmonic

bridge part two
C|-1-0-0-0-5-4-4*-|
G|----------------|
*=pinch harmonic




Ваше мнение



Капча