intro 2x
------------------23-23-23--------|
20-20-20-23-23-23----------23-20--|
----------------------------------|
----------------------------------|
----------------------------------|
----------------------------------|
--------------------------------|
---------19-19-19-22-22-22-19---|
19-19-19----------------------19|
--------------------------------|
--------------------------------|
--------------------------------|
-------------------------------|--------------------------|
------------------19-19-19-----|---------19-19-19-22-22---|
---------19-19-19----------19--|19-19-19----------------19|
19-19-19-----------------------|--------------------------|
-------------------------------|--------------------------|
-------------------------------|--------------------------|




Ваше мнение



Капча