SYSTEM OF A DOWN - SUGGESTIONS
Tuning C G C F A D
Intro
|---7----7-----7----7-----7----7-----7-----7-|
|------0---------0----------0-----------0----|
|-9----------9---------9-----------9---------|
|--------------------------------------------|
|--------------------------------------------|
|--------------------------------------------|
|----7----7-----7----7-----7----7------7-----7-|
|------0----------0----------0------------0----|
|-10---------10---------10----------10---------|
|----------------------------------------------|
|----------------------------------------------|
|----------------------------------------------|
Verse
|------------------------|
|------------------------|
|----4-----4----4-----4--|
|-2-----2-----2----2-----|
|------------------------|
|------------------------| repeat
Chorus
|-------------------------|
|-------------------------|
|-------------------------|
|-------------------------|
|-2-2-2-2-2-2-3-3-3-3-3-3-|
|-2-2-2-2-2-2-3-3-3-3-3-3-|
Bridge/Outro
|-----------------------------------------------------------|
|-----------------------------------------------------------|
|-7-7--7--7-7-7--7-7--7-7/10-10--10--10-10-10--10-10--10-10-|
|-----------------------------------------------------------|
|-6-6--6--6-6-6--6-6--6-6/ 9--9---9---9--9--9---9--9---9--9-|
|-----------------------------------------------------------|
interlude
|---7----7-----7----7-----7----7-----7-----7-|
|------0---------0----------0-----------0----|
|-9----------9---------9-----------9---------|
|--------------------------------------------|
|--------------------------------------------|
|--------------------------------------------|
|----7----7-----7----7-----7----7------7-----7-|--7-|
|------0----------0----------0------------0----|--0-|
|-10---------10---------10----------10---------|-10-|
|----------------------------------------------|----|
|----------------------------------------------|----|
|----------------------------------------------|----|
|---------------------------------|
|---------------------------------|
|---------------------------------|
|---------------------------------|
|-2--2--2-2--2--2-3--3--3-3--3--3-|
|-2--2--2-2--2--2-3--3--3-3--3--3-|
|-------------------------------------------------------------|
|-------------------------------------------------------------|
|-----------------------------4^---------------------------5^-|
|-------------------------------------------------------------|
|-2-2-2-2-2-2-2-2-2-2-2-2-2-2----3-3-3-3-3-3-3-3-3-3-3-3-3----|
|-2-2-2-2-2-2-2-2-2-2-2-2-2-2----3-3-3-3-3-3-3-3-3-3-3-3-3----|
p.m........................ p.m......................
End on
|----|
|----|
|----|
|-2~-|
|-2~-|
|-2~-|




Ваше мнение



Капча