chorus (intro)
--------------------------------------------------------
--------------------------------------------------------
--------------------------------------------------------
---7-6-5--7-6-5--7-6-5--7-6-5---------------------------
---7-6-5--7-6-5--7-6-5--7-6-5---------------------------
---7-6-5--7-6-5--7-6-5--7-6-5---------------------------
verse
--15-15-14-----13/--------------------------------------
13--------15-13-----------------------------------------
-------------------------------------------------------- x3
--------------------------------------------------------
--------------------------------------------------------
--------------------------------------------------------
--------161616161616-151515151515---------------13--13--
13131313-------------------------161616161616-13--13--13
--------------------------------------------------------
--------------------------------------------------------
--------------------------------------------------------
--------------------------------------------------------
chorus
--------------------------------------------------------
--------------------------------------------------------
--------------------------------------------------------
---7-6-5------------------------------------------------ loads of times
---7-6-5------------------------------------------------
---7-6-5------------------------------------------------
verse
--15-15-14-----13/--------------------------------------
13--------15-13-----------------------------------------
-------------------------------------------------------- x2
--------------------------------------------------------
--------------------------------------------------------
--------------------------------------------------------
--------161616161616-151515151515---------------13--13--
13131313-------------------------161616161616-13--13--13
--------------------------------------------------------
--------------------------------------------------------
--------------------------------------------------------
--------------------------------------------------------
chorus
--------------------------------------------------------
--------------------------------------------------------
--------------------------------------------------------
---7-6-5--7-6-5--7-6-5--7-6-5---------------------------
---7-6-5--7-6-5--7-6-5--7-6-5---------------------------
---7-6-5--7-6-5--7-6-5--7-6-5---------------------------
--------------------------------------------------------
--------------------------------------------------------
--------------------------------------------------------
--------------------------------------------------------
--------------------------------------------------------
1---1-0--1---1-0----1---1-0-----------------------------
--------------------------------------------------------
--------------------------------------------------------
--------------------------------------------------------
--------------------------------------------------------
--------------------------------------------------------
-1--12--1-0-1-0--12-0-0-1-------------------------------

--------------------------------------------------------
--------------------------------------------------------
--------------------------------------------------------
---7-6-5--7-6-5--7-6-5--7-6-5--------------------------- repeat until end
---7-6-5--7-6-5--7-6-5--7-6-5---------------------------
---7-6-5--7-6-5--7-6-5--7-6-5---------------------------
that is perfect if any1 disagrees e-mail me at [email protected]




Ваше мнение



Капча