bandname: System of a Down
songname: Sugar
tabtype: guitar

Tuning: Drop D (D A D G B E) down one step (C G C F A D)
Intro
D|----------------------------------------------| (x 4)
A|----------------------------------------------|
F|----------------------------------------------|
C|-0-7-6-5--0-7-6-5--0-7-6-5--0-7-6-5--0-7-6-5--|
G|-0-7-6-5--0-7-6-5--0-7-6-5--0-7-6-5--0-7-6-5--|
C|-0-7-6-5--0-7-6-5--0-7-6-5--0-7-6-5--0-7-6-5--|
Verse
D|----13-~-13-12-------10-/-10-/---13-~-13-12-------10-/--10-/--|
A|-10------------13-10-----------10------------13-10------------|
F|--------------------------------------------------------------|
C|--------------------------------------------------------------|
G|--------------------------------------------------------------|
C|--------------------------------------------------------------|
D|-----13-S-13-12---------10----10----10----10-----------------|
A|-10-------------13-h-10----10----10----10----10--------------|
F|-------------------------------------------------------------|
C|-------------------------------------------------------------|
G|-------------------------------------------------------------|
C|-------------------------------------------------------------|
Chorus
D|-----------------------------------------------------|
A|-----------------------------------------------------|
F|-----------------------------------------------------|
C|-0-7-6-5--0-7-6-5--0-7-6-5--0-7-6-5--0-7-6-5-0-7-6-5-|
G|-0-7-6-5--0-7-6-5--0-7-6-5--0-7-6-5--0-7-6-5-0-7-6-5-|
C|-0-7-6-5--0-7-6-5--0-7-6-5--0-7-6-5--0-7-6-5-0-7-6-5-|
Bridge
D|----------------------------------------------|
A|----------------------------------------------|
F|----------------------------------------------|
C|-1-~-1-0-----1-~-1-0--------------------------|
G|-1---1-0-----1---1-0--------------------------|
C|-1---1-0-----1---1-0--------------------------|
Outro Chorus
D|----------------------------------------------| (x4)
A|----------------------------------------------|
F|----------------------------------------------|
C|-1-~-12-/-1-0-1-0-~-12-/-0--------------------|
G|-1---12-/-1-0-1-0---12-/-0--------------------|
C|-1---12-/-1-0-1-0---12-/-0--------------------|
Outro
D|---------------------------------------------------------|
A|---------------------------------------------------------|
F|---------------------------------------------------------|
C|-0-7-6-5-0-7-6-5-0-7-6-5-0-7-6-5-0-7-6-5-0-7-6-5-0-7-6-5-|
G|-0-7-6-5-0-7-6-5-0-7-6-5-0-7-6-5-0-7-6-5-0-7-6-5-0-7-6-5-|
C|-0-7-6-5-0-7-6-5-0-7-6-5-0-7-6-5-0-7-6-5-0-7-6-5-0-7-6-5-|




Ваше мнение



Капча