artist: system of a down
song: streamline (from Scorpion King)
tabbed by : the_darkwin
dropped-C tunning
intro (distorted)
d|---------------------------------------|
A|---------------------------------------|
F|---------------------------------------|
C|--------------------------8-8-8-8-7-5--|
G|--------------------------8-8-8-8-7-5--|
C|--0--5-6^---0-0-3--|7x |--8-8-8-8-7-5--|
p.m.....................................
wasn't there for you
|---------------------------------------|
|---------------------------------------|
|---------------------------------------|
|--------------------------8-8-8-8-7-5--|
|--0--5------0-0-3---------8-8-8-8-7-5--|
|--0--5-6^---0-0-3--|7x |--8-8-8-8-7-5--|
p.m.....................................
wasn't there for you
|---------------------------------------|
|---------------------------------------|
|---------------------------------------|
|--------------------------8-8-8-8-7-5--|
|--0--5------0-0-3---------8-8-8-8-7-5--|
|--0--5-6^---0-0-3--|7x |--8-8-8-8-7-5--|
p.m.....................................
verse 6x (clean)
|--------------------------------------------|
|--------------------------------------------|
|----------14----------------15----------12--|
|------12------|6x|------13----------10------|
|--12----------------13----------10----------|
|--------------------------------------------|
|---------------|
|---------------|
|---------------|
|--8-8-8-8-7-5--|
|--8-8-8-8-7-5--|
|--8-8-8-8-7-5--|
p.m............
then chorus 4x
|---------------------------------------|
|---------------------------------------|
|---------------------------------------|
|--------------------------8-8-8-8-7-5--|
|--0--5------0-0-3---------8-8-8-8-7-5--|
|--0--5-6^---0-0-3--|3x |--8-8-8-8-7-5--|
p.m.....................................
solo (not to sure, but sounds good though)
[used from mrdavedaly but tabbed to tunning]
|-10-----12------13--------15--13--12--13--12--10--|
|----10------10------10----------------------------|
|--------------------------------------------------|
|--------------------------------------------------|
|--------------------------------------------------|
|--------------------------------------------------|
|-10------12------13-------15--13--12--13--12--13--|
|-----10------10------10---------------------------|
|--------------------------------------------------|
|--------------------------------------------------|
|--------------------------------------------------|
|--------------------------------------------------|
|-17-----------------------------------------------|
|-----17--18--17--15--17--15-----------------------|
|-----------------------------17-------------------| 2x
|--------------------------------------------------|
|--------------------------------------------------|
|--------------------------------------------------|
|-10------12------13-------15--13--12--13--12--13--|
|-----10------10------10---------------------------|
|--------------------------------------------------|
|--------------------------------------------------|
|--------------------------------------------------|
|--------------------------------------------------|
|-17-----------------------------------------------|
|-----17--18--17--15--17--15-----------------------|
|-----------------------------17-------------------| 2x
|--------------------------------------------------|
|--------------------------------------------------|
|--------------------------------------------------|
|-17--17--17---------------------------------------|
|-------------17--17--17--17--17--15--17--15-------|
|---------------------------------------------17---| 4x
|--------------------------------------------------|
|--------------------------------------------------|
|--------------------------------------------------|
|--------------------------------------------------|
p.m................................................
there you go. there is a little more too it but heres the
basics. have fun with it. any questions or comments to
[email protected]




Ваше мнение



Капча