Storaged
Drop D down 1 step
for more tabs
http://go.to/tab_zone
Intro/Outro
|----------|
|----------|
|----------|
|----------|
|--5-6-5-0-|
|--5-------|
Verse
|------|---------|
|------|---------|
|------|---------|
|--3-5-|---------|
|--3-5-|-5-6-5-0-|
|--3-5-|-5-------|
Chorus let ring.................
don't let ring...................................
|--------------------------------------------------------------------------|
|--------------------------------------------------------------------------|
|--------------------------------------------------------------------------|
|--6-5---6-5---6-5---6-5---6-5---6-5---6-5---6-5---5-3---5-3---5-3---5-3---|
|--6-5---6-5---6-5---6-5---6-5---6-5---6-5---6-5---5-3---5-3---5-3---5-3---|
|--6-5---6-5---6-5---6-5---6-5---6-5---6-5---6-5---5-3---5-3---5-3---5-3---|
|------------------------|
|------------------------|
|------------------------|
|--6-5---6-5---6-5---6-5-|
|--6-5---6-5---6-5---6-5-|
|--6-5---6-5---6-5---6-5-|




Ваше мнение



Капча