SYSTEM OF A DOWN - SPIDERS

Tuning- C G C F A D

Intro\Verse

|------------------------|
|------------------------|
|------------------------|
|------------------------|
|---7---7----5---5---5-5-|
|-0---0---0----0---0-----| x2

|----------------------------|
|----------------------------|
|----------------------------|
|----------------------------|
|---8---7---10---8---7---7h8-|
|-0---0---0----0---0---0-----|

|------------------------|
|------------------------|
|------------------------|
|------------------------|
|---7---7----5---5---5-5-|
|-0---0---0----0---0-----|

Chorus

Distortion
|------------------------------------------------------|
|------------------------------------------------------|
|------------------------------------------------------|
|-10--10--10-10-10--10--10-10-10--10--10-10-10--10--10-|
|-10--10--10-10-10--10--10-10-10--10--10-10-10--10--10-|
|-10--10--10-10-10--10--10-10-10--10--10-10-10--10--10-|

|----------------------------|
|----------------------------|
|----------------------------|
|----------------------------|
|---8---7---10---8---7---7h8-|
|-0---0---0----0---0---0-----|

|------------------------|
|------------------------|
|------------------------|
|------------------------|
|---7---7----5---5---5-5-|
|-0---0---0----0---0-----|

|-------------------------------------------------|
|-------------------------------------------------|
|-------------------------------------------------|
|-10--10--10-10-10--10--10-10/8--8--8-8/7--7--7-7-|
|-10--10--10-10-10--10--10-10/8--8--8-8/7--7--7-7-|
|-10--10--10-10-10--10--10-10/8--8--8-8/7--7--7-7-|

Verse 2- Same as verse 1

Chorus 2- Same as chorus 1

|-----------|
|-----------|
|-14-15-/18-|
|--x--x-/-x-|
|-12-13-/16-|
|-----------| x2
~~Tremelo~~

|-------------------------------------------------|
|-------------------------------------------------|
|-19----19----19----19----19----19----19----19----|
|-------------------------------------------------|
|----17----17----17----17----17----17----17----17-|
|-------------------------------------------------|

|---------------------------------------------------|
|---------------------------------------------------|
|-/20----20----20----20----/18----18----18----18----|
|---------------------------------------------------|
|----/18----18----18----18----/16----16----16----16-|
|---------------------------------------------------| x2

Interlude

|------------------------------------------------------|
|------------------------------------------------------|
|------------------------------------------------------|
|-10--10--10-10-10--10--10-10-10--10--10-10-10--10--10-|
|-10--10--10-10-10--10--10-10-10--10--10-10-10--10--10-|
|-10--10--10-10-10--10--10-10-10--10--10-10-10--10--10-|

|-------------------------------------------------------|
|-------------------------------------------------------|
|-------------------------------------------------------|
|-------------------------------------------------------|
|---12---10---13---12---10---12---10---12---8---8---8-8-|
|-0----0----0----0----0----0----0----0----0---0---0-----|

|-------------------------------------------------|
|-------------------------------------------------|
|-------------------------------------------------|
|-10--10--10-10-10--10--10-10/8--8--8-8/7--7--7-7-|
|-10--10--10-10-10--10--10-10/8--8--8-8/7--7--7-7-|
|-10--10--10-10-10--10--10-10/8--8--8-8/7--7--7-7-|

|-------------------------------------------------------|
|-------------------------------------------------------|
|-------------------------------------------------------|
|-------------------------------------------------------|
|---12---10---13---12---10---12---10---12---8---8---8-8-|
|-0----0----0----0----0----0----0----0----0---0---0-----| x2

Outro

|------------------------|
|------------------------|
|------------------------|
|------------------------|
|---7---7----5---5---5-5-|
|-0---0---0----0---0-----| x4

|----------------------------|
|----------------------------|
|----------------------------|
|----------------------------|
|---8---7---10---8---7---7h8-|
|-0---0---0----0---0---0-----|

|------------------------|
|------------------------|
|------------------------|
|------------------------|
|---7---7----5---5---5-5-|
|-0---0---0----0---0-----| x2




Ваше мнение



Капча