Soil
System of a Down
[email protected]
Tuning- c g c f a d

This tab is out of the book and is 100% correct. This song has multiple guitars
playing so I hope you can figure this out. Have fun (that's what the guitar's
for anyhow!)

INTRO
Gtrs.1 (slight dist.)& 2 (dist.)
---------------------------------------|
-10--10--10--10-10-10--10-10-10--10-10-|
-10--10--10--10-10-10--10-10-10--10-10-|
-10--10--10--10-10-10--10-10-10--10-10-|
--8---8---8---8--8--8---8--8--8---8--8-|
---------------------------------------|

----------------------------------------------|
10--10-10-10-10-10-10-10-10-10-10-10-10-10-10-|
10--10-10-10-10-10-10-10-10-10-10-10-10-10-10-|
10--10-10-10-10-10-10-10-10-10-10-10-10-10-10-|
-8---8--8--8--8--8--8--8--8--8--8--8--8--8--8-|
----------------------------------------------|

---------------------------------------------|
-10-10-10-10-10--10-10-10--10-10-10-10-10-10-|
-10-10-10-10-10--10-10-10--10-10-10-10-10-10-|
-10-10-10-10-10--10-10-10--10-10-10-10-10-10-|
--8--8--8--8--8---8--8--8---8--8--8--8--8--8-|
---------------------------------------------|

-----------------------------------------|
10--10-10-10--10-10-10--10-10-10---------|
10--10-10-10--10-10-10--10-10-10---------|
10--10-10-10--10-10-10--10-10-10---0--0--|
-8---8--8--8---8--8--8---8--8--8---0--0--|
-----------------------------------------|

|---------------------------------------|-------------------------------------|
|---------------------------------------|-------------------------------------|
|---------------------------------------|-------------------------------------|
|---------------------------------------|-------------------------------------|
|-3---1---0---3--3-----1--1---0---0--0--|-3---1---0---3--3-----1--0--0--4---0-|
|-3---1---0---3--3-----1--1---0---0--0--|-3---1---0---3--3-----1--0--0--4---0-|

----------------------------|----------------------------|
----------------------------|----------------------------|(It's printed closer
----------------------------|----------------------------|together in the book)
----------------------------|----------------------------|
-3--1--0--3-3---1-1--0--0-0-|-3--1--0--3-3---1--0-0-4--0-|
-3--1--0--3-3---1-1--0--0-0-|-3--1--0--3-3---1--0-0-4--0-|

VERSE
Riff A (Gtr. 2)
-----------------------|----------------------------|-------------------------|
-----------------------|----------------------------|-------------------------|
-----------------------|----------------------------|-------------------------|
-----------------------|----------------------------|-------------------------|
-----------------------|----------------------------|-------------------------|
3--1--0--3-3---1-1-1-0-|-3--1--0--3-3---1-0-0-4-4-0-|-3--1--0--3-3---1-1-1-0--|
The phoe-nix he helped cre - ate,
Making a decision of death-while every1 around you pled.Now you fly in peace I

----------------------------|
----------------------------|
----------------------------|
----------------------------|
----------------------------|
-3--1--0--3-3---1-0-0-4-4-0-|
End Riff A
hope, my friend

Gtr. 2 w/Riff A, 2 times
out of control boy without a
A man can't avoid doin' what he's meant to do when he's meant to do it,

dad shot the gun that
even if he doesn't really want to. My memories are of fun

started my life
and friendship of weakness within the strength of youth. For

(Gtr. 2)
----------------------------------|----------------------------------------|
----------------------------------|----------------------------------------|
----------------------------------|----------------------------------------|
----------------------------------|----------------------------------------|
----------------------------------|----------------------------------------|
--3---1---0---3--3----1--1--1--0--|--3---1---0---3--3----1--0--0--4--4--0--|
while I drove him with a for - ty
reasons undefined, reasons undefined,

--------------------------|---------------------------------------------------|
--------------------------|---------------------------------------------------|
--------------------------|---------------------------------------------------|
--------------------------|---------------------------------------------------|
--------------------------|----------------------------------------3h5-5-5-5--|
--3--1--0--3-3---1-1-1-0--|--3--1--0--3-3---1-0-0-4-4-4-0-|-0---0-------------|
five
reasons undefined, resons undefined.

CHORUS
RhyFig1 (Gtrs. 1 & 2)
--------------------------------------|----------------------------------|
--------------------------------------|----------------------------------|
--------------------------------------|----------------------------------|
--------------------------------------|----------------------------------|
--3---1---0---3--3----1--1---0---0--0-|-3---1---0---3--3----1--1--1--0---|
--3---1---0---3--3----1--1---0---0--0-|-3---1---0---3--3----1--1--1--0---|End
Friends for years, images in red, RhyFig1

Gtrs. 1 & 2 w/RhyFig1, 2 times
blew off his own moth-er-fuck-in' head. Con-fidence, death, in-se-cur-ity.

Gtrs. 1 & 2
--------------------------------------|
--------------------------------------|
--------------------------------------|
--------------------------------------|
--3---1---0---3--3----1--1---0---0--0-|
--3---1---0---3--3----1--1---0---0--0-|

1st Chorus ending Gtr. 2
------------------------------------------|---------|
------------------------------------------|---------|
------------------------------------------|---------|
------------------------------------------|---------|
-3---1---0---3--3----1--0--0--------------|---------|
-3---1---0---3--3----1--0--0--1--4--4--4--|----0----|
Men fall un-real-ized, un-real - ized,

Gtr.1
-----------------------------|-|------------------------------------------|-|
9--9-9-9--9-9-9--9-9-9-9-9-9-|-|12--12-12-12--12-12-12--12-12-12-12-12-12-|-|
x--x-x-x--x-x-x--x-x-x-x-x-x-|-|-x---x--x--x---x--x--x---x--x--x--x--x--x-|-|
6--6-6-6--6-6-6--6-6-6-6-6-6-|-|-9---9--9--9---9--9--9---9--9--9--9--9--9-|-|
-----------------------------|-|------------------------------------------|-|
-----------------------------|-|------------------------------------------|-|
Gtr.2 un-real-ized.
-----------------------------|-|------------------------------------------|-|
9--9-9-9--9-9-9--9-9-9-9-9-9-|-|12--12-12-12--12-12-12--12-12-12-12-12-12-|-|
x--x-x-x--x-x-x--x-x-x-x-x-x-|-|-x---x--x--x---x--x--x---x--x--x--x--x--x-|-|
6--6-6-6--6-6-6--6-6-6-6-6-6-|-|-9---9--9--9---9--9--9---9--9--9--9--9--9-|-|
-----------------------------|-|------------------------------------------|-|
-----------------------------|0|------------------------------------------|-|
__________________
Gtr.1
---------------------------|-|13--13-13-13-13-13-13-13-13-13-13-13-|
11-------------------------|-|13--13-13-13-13-13-13-13-13-13-13-13-|
-x-(x15)-------------------|-|13--13-13-13-13-13-13-13-13-13-13-13-|
-8-------------------------|-|-------------------------------------|
---------------------------|-|-------------------------------------|
---------------------------|-|-------------------------------------|
Gtr.2
---------------------------|-|13--13-13-13-13-13-13-13-13-13-13-13-|
11-------------------------|-|13--13-13-13-13-13-13-13-13-13-13-13-|
-x-(x15)-------------------|-|13--13-13-13-13-13-13-13-13-13-13-13-|
-8-------------------------|-|-------------------------------------|
---------------------------|-|-------------------------------------|
---------------------------|0|-------------------------------------|

2nd Chorus ending
--------------------------------------|
--------------------------------------|
--------------------------------------|
--------------------------------------|
--3---2---0---3--3----1--0--0--4---4--|
--3---2---0---3--3----1--0--0--4---4--|
Men fall unrealized.

BRIDGE
RhyFig2
pm... ..... ..... ........................
-----------------|------------------|----------------|-------------------------|
-----------------|------------------|----------------|-------------------------|
-----------------|------------------|----------------|-------------------------|
-----------------|------------------|----------------|-------------------------|
-0--0------------|-0--0-------------|-0--0-----------|-0-------0------0------0-|
-0--0------------|-0--0-------------|-0--0-----------|-0-------0------0------0-|
DontYou realize evil livesinthemotherfuckingskin
End RhyFig2
Gtrs.1 & 2 w/RhyFig2, 2 times.

Gtr.3
ph ph pm... ph pm.... ph
---------------------------------------|---------------------------------------|
---------------------------------------|---------------------------------------|
--7---7---7---7--7--7--7--7--7--7---7--|--7---7--7--7---7--7--7--7--7--7--7---7|
---------------------------------------|---------------------------------------|
---------------------------------------|---------------------------------------|
---------------------------------------|---------------------------------------|
Don't You realize that

pm... pm............... ph pm ph pm.... pm...
----------------------------------------|-----------------------------------12-|
----------------------------------------|--------------------------------------|
--7---7--7--7---7--7--7--7--7--7--7---7-|-7---7--7--7----7--7--7--7--7---------|
----------------------------------------|--------------------------------0-----|
----------------------------------------|--------------------------------0-----|
----------------------------------------|--------------------------------------|
e-vil lives in the motherfucking skin?

-10--10-10-10--10-10-10-10-10-10-10--10-10-|
-------------------------------------------|
-------------------------------------------|
-------------------------------------------|
-------------------------------------------|
-------------------------------------------|
Don't you

-10--10-10-10--10-10---10-10-10-10---10-10-|
-------------------------------------------|
-------------------------------------------|
-------------------------------------------|
-------------------------------------------|
-------------------------------------------|
real - ive that

-10--10-10-10--10-10-10-10-10-10-10--10-10-|
-------------------------------------------|
-------------------------------------------|
-------------------------------------------|
-------------------------------------------|
-------------------------------------------|
e - vil

-10--10-10-10--10-10-10-10-10-10-10-10-10-10-|
---------------------------------------------|
---------------------------------------------|
---------------------------------------------|
---------------------------------------------|
---------------------------------------------|
lives in the

GUITAR SOLO(Gtr.2)
--(10)------------|--------10-12--|-13----------12--13--|-15-----------------|
------------------|--------10-----|---------------------|-----------10^(10)--|
------------------|--------10-----|---------------------|--------------------|
------------------|---------------|---------------------|--------------------|
----0-------------|---------------|---------------------|--------------------|
----0-------------|---------------|---------------------|--------------------|

-----------10-12--|-13-----------------|---------------------|
-----------10-----|-----------------10^|(10)--------x---x--x-|
-----------10-----|--------------------|------------x---x--x-|
------------------|--------------------|------------x---x--x-|
------------------|--------------------|---------------------|
------------------|--------------------|---------------------|

------------------------------|----------------------------|-----------------|
------------------------------|----------------------------|-----------------|
------------------------------|----------------------------|-----------------|
-----3h-----3h-----3h-----3h--|---3h-----3h-----3h-----3h--|-----------------|
--3h5--5-3h5--5-3h5--5-3h5--5-|3h5--5-3h5--5-3h5--5-3h5--5-|3h5--------------|
------------------------------|----------------------------|-----------------|

-------------|----------------------------|----------------------------|
------x--x-x-|----------------------------|----------------------------|
------x--x-x-|----------------------------|----------------------------|
------x--x-x-|---3h-----3h-----3h-----3h--|---3h-----3h-----3h-----3h--|
-(5)---------|3h5--5-3h5--5-3h5--5-3h5--5-|3h5--5-3h5--5-3h5--5-3h5--5-|
-------------|----------------------------|----------------------------|

-----|---------------|--------------------------------------------|
-----|---------------|--------------------------------------------|
-----|----------(11)-|-----10h--------10h--------10h--------10h---|
-----|---------------|10h12---12-10h12---12-10h12---12-10h12---12-|
-3h5-|-------/5-----|--------------------------------------------|
-----|---------------|--------------------------------------------|

--------------------------------------------|--------------|-------------|
--------------------------------------------|-11---11^(11)-|10-----------|
-------10h--------10h--------10-12^---12h10-|--------------|---10--10-10-|
--10h12---12-10h12---12-10h12---------------|--------------|-------------|
--------------------------------------------|--------------|-------------|
--------------------------------------------|--------------|-------------|

------------10------------10-|------------10---------------------|
------10-10-10------10-10-10-|------10-10-10---------------------|
-10h--10-10----10h--10-10----|-10h--10-10----------10-12^--12p10-|
-10-12---------10-12---------|-10-12---------10h12---------------|
-----------------------------|-----------------------------------|
-----------------------------|-----------------------------------|
ph
-----------------13-15-|15--15-15-15-15^--15^--15^--15^--15^--15^-|
-13^(13)-138/15-------|------------------------------------------|
-----------------------|------------------------------------------|
-----------------------|------------------------------------------|
-----------------------|------------------------------------------|
-----------------------|------------------------------------------|

(Gtr.1 w/ RhyFig1)
---------------------------------------|-------------------------------------|
---------------------------------------|-------------------------------------|
---------------------------------------|-------------------------------------|
--10--11-11-10--10-10-107-7-7-76-6-6-|-7--7-7-10--10-10-1011-11-11-10--10-|
---9--10-10--9---9--9--96-6-6-65-5-5-|-6--6-6--9---9--9--910-10-10--9---9-|
---------------------------------------|-------------------------------------|
Don't you realize

-------------------------------------------|--------------------------------|
-------------------------------------------|--------------------------------|
-------------------------------------------|--------------------------------|
-11--11-11-11/14-14-14-1413-13-13-1311-11|10--10-10-107-7---76-5--6/----|
-10--10-10-10/13-13-13-1312-12-12-1210-10|-9---9--9--96-6---65-4--5/----|
-------------------------------------------|--------------------------------|
e - vil lives in the motherfucking skin?

----------------------------------------|---------------------------------------
----------------------------------------|---------------------------------------
11/12-12-12-1211-11-11-118-8-8-87-7-7|7/8-8-8-8/11-11-11-11/12-1211-11-11-11
----------------------------------------|---------------------------------------
----------------------------------------|---------------------------------------
----------------------------------------|---------------------------------------
Don't you realize that

-----------------------------------------------|------------------------------xx
-----------------------------------------------|--------------------------------
11/12-12-12-12/15-15-15-1514-14-14-1412-12-12|1211-11-11-118-8-8-87-7-7-7--
-----------------------------------------------|--------------------------------
-----------------------------------------------|--------------------------------
-----------------------------------------------|--------------------------------
e - vil lives in the motherfucking skin.

-14/15-15-15-1514-14-14-1411-11-11-1110-10-10|
------------------------------------------------|
------------------------------------------------|
------------------------------------------------|
------------------------------------------------|
------------------------------------------------|

10/11-11-11-11/14-14-14-14/15-1514-14--14-14-|
----------------------------------------------|
----------------------------------------------|
----------------------------------------------|
----------------------------------------------|
----------------------------------------------|

-14/15-15-15-15/18-18-18-1817-17-17-1715-15-15-|
-------------------------------------------------|
-------------------------------------------------|
-------------------------------------------------|
-------------------------------------------------|
-------------------------------------------------|

1514-14-14-1411-11-11-1110-10-10-10--|
----------------------------------------|
----------------------------------------|
----------------------------------------|
----------------------------------------|
----------------------------------------|

Why the fuck did you take him away from us you motherfucker!

OUTRO(Gtr.1 & 2)
----------------------------|--------------------------|----------------------|
----------------------------|--------------------------|----------------------|
----------------------------|--------------------------|---------(x3)---------|
----------------------------|--------------------------|----------------------|
-3-1-0-3-3--1-1-1-0-0--(x3)-|-3-1-0-3-3--1-1-1-4-4-4-4-|-3-1-0-3-3--1-1-1-0-0-|
-3-1-0-3-3--1-1-1-0-0-------|-3-1-0-3-3--1-1-1-4-4-4-4-|-3-1-0-3-3--1-1-1-0-0-|

This may look long and very hard but once you look over it it isn't that bad.
So all my guitar friends enjoy this tab.
fin


Ваше мнение



Капча