------------------------------------------------------------------------------
------------------------------------------------------------------------------
------------------------------------------------------------------------------
-3-2-0-2-3-2-0-2--------------------------------------------------------------
-3-2-0-2-3-2-0-2--------------------------------------------------------------
-3-2-0-2-3-2-0-2--------------------------------------------------------------
intro
----------|-------------------------------------------------------------------
----------|-------------------------------------------------------------------
----------|-------------------------------------------------------------------
--3-2-2-2-|-7-6-6-6-----------------------------------------------------------
--3-2-2-2-|-7-6-6-6-----------------------------------------------------------
--3-2-2-2-|-7-6-6-6-----------------------------------------------------------
then
-----------------|---------|--------------------------------------------------
-----------------|---------|--------------------------------------------------
-----------------|---------|--------------------------------------------------
-----------------|---------|--------------------------------------------------
-----------------|---------|-7-8-7-5-3-2-0------------------------------------
-3-2-0-2-3-2-0-2-|-3-2-0-2-|---------------6----------------------------------
fisrt and third times
------------------------------------------------------------------------------
------------------------------------------------------------------------------
------------------------------------------------------------------------------
-----6-7-6h7p6----------------------------------------------------------------
-7-8-----------8-7-5----------------------------------------------------------
------------------------------------------------------------------------------
second time
------------------------------------------------------------------------------
------------------------------------------------------------------------------
------------------------------------------------------------------------------
-----6-7-6h7p6----------------------------------------------------------------
-7-8-----------8-7-5-7-5-3-2-3-2-0--------------------------------------------
-----------------------------------6------------------------------------------
last time
-----|------------------------------------------------------------------------
-----|------------------------------------------------------------------------
-----|------------------------------------------------------------------------
-2---|-6----------------------------------------------------------------------
-2---|-6----------------------------------------------------------------------
-2---|-6----------------------------------------------------------------------
chorus
------------------------------------------------------------------------------
------------------------------------------------------------------------------
------------------------------------------------------------------------------
-0----------------------------------------------------------------------------
-0----------------------------------------------------------------------------
-0----------------------------------------------------------------------------
indoctaination of...
------------------------------------------------------------------------------
------------------------------------------------------------------------------
------------------------------------------------------------------------------
------------------------------------------------------------------------------
-7-8-7-5-3-2-0----------------------------------------------------------------
---------------6--------------------------------------------------------------
then before outro repeat this

?'s e-mail me [email protected]




Ваше мнение



Капча