Artist: System Of A Down
Song: Shimmy
Tab by:Quinton Gardiner
Tuning: Drop D Full Step Down
Intro
Gtr I
PM----------------------------|
5x
||-----------------------------------||---------------------------------||
||o---------------------------------o||---------------------------------||
||-----------------------------------||---------------------------------||
||-----------------------------------||---------------------------------||
||o---------------------------------o||---------------------------------||
||--2-1-0-1-3-2-0-2-2-1-0-1-3-2-0-2--||-2-1-0-1-3-2-0-2-2-1-0-1-3-2-0-2-||

PM------|
3x
||---------------------------||-------------------------||
||o-------------------------o||-------------------------||
||---------------------------||-------------------------||
||--2-2-2-2-2-2/6-6-6-6-6-6--||-2-2-2-2-2-2-6-6-6-6-6---||
||o-2-2-2-2-2-2/6-6-6-6-6-6-o||-2-2-2-2-2-2-6-6-6-6-6---||
||--2-2-2-2-2-2/6-6-6-6-6-6--||-2-2-2-2-2-2-6-6-6-6-6---||
1st, 2nd Verses


PM----------------------------|
|---------------------------------|------------------|
|---------------------------------|------------------|
|---------------------------------|------------------|
|---------------------------------|------------------|
|-2-1-0-1-3-2-0-2-2-1-0-1-3-2-0-2-|-7-8-7-5----------|
|-2-1-0-1-3-2-0-2-2-1-0-1-3-2-0-2-|---------10-9-7-6-|

PM----------------------------|
|---------------------------------|--------------------------|
|---------------------------------|--------------------------|
|---------------------------------|--------------------------|
|---------------------------------|--------------------------|
|-2-1-0-1-3-2-0-2-2-1-0-1-3-2-0-2-|-7-8-11-12-11h12p11-8-7-5-|
|-2-1-0-1-3-2-0-2-2-1-0-1-3-2-0-2-|--------------------------|

PM----------------------------|
|---------------------------------|------------------|
|---------------------------------|------------------|
|---------------------------------|------------------|
|---------------------------------|------------------|
|-2-1-0-1-3-2-0-2-2-1-0-1-3-2-0-2-|-7-8-7-5----------|
|-2-1-0-1-3-2-0-2-2-1-0-1-3-2-0-2-|---------10-9-7-6-|

PM----------------------------|
|---------------------------------|
|---------------------------------|
|---------------------------------|
|---------------------------------|
|-2-1-0-1-3-2-0-2-2-1-0-1-3-2-0-2-|
|-2-1-0-1-3-2-0-2-2-1-0-1-3-2-0-2-|
To Coda
N.C.
|--------------------------|----------------------|
|--------------------------|----------------------|
|--------------------------|----------------------|
|--------------------------|----------------------|
|-7-8-11-12-11h12p11-8-7-8-|-7-5------------------|
|--------------------------|-----10-9-10-9-7-6----|
Chorus
Coda
PM------|
3x
||---------------------------||-------------------------||
||o-------------------------o||-------------------------||
||---------------------------||-------------------------||
||--2-2-2-2-2-2S6-6-6-6-6-6--||-2-2-2-2-2-2-6-6-6-6-6---||
||o-2-2-2-2-2-2S6-6-6-6-6-6-o||-2-2-2-2-2-2-6-6-6-6-6---||
||--2-2-2-2-2-2S6-6-6-6-6-6--||-2-2-2-2-2-2-6-6-6-6-6---||
Chorus Interlude

8x
||---------------------------||---------------|---------------|
||o-------------------------o||---------------|---------------|
||---------------------------||---------------|---------------|
||--2-2-2-2-2-2/6-6-6-6-6-6--||-2-2----2-2----|-2-2----2-2----|
||o-2-2-2-2-2-2/6-6-6-6-6-6-o||-2-2----2-2----|-2-2----2-2----|
||--2-2-2-2-2-2/6-6-6-6-6-6--||-2-2----2-2----|-2-2----2-2----|

PM------|
|---------------------|-----------------------||
|---------------------|-----------------------||
|---------------------|-----------------------||
|-2-2--2-2--2-2--2-2--|-2-2--2-2--------------||
|-2-2--2-2--2-2--2-2--|-2-2--2-2--6-6-6-6-6---||
|-2-2--2-2--2-2--2-2--|-2-2--2-2--6-6-6-6-6---||
Bridge Outro
PM-------------| PM----------------------|
5x 4x
||--------------------||------------------||---------------------------------||
||o------------------o||------------------||o-------------------------------o||
||--------------------||------------------||---------------------------------||
||--------------------||------------------||---------------------------------||
||o-7-8-7-5----------o||-7-8-7-5----------||o-2-1-0-1-3-2-0-2-2-1-0-1-2--0--o||
||----------10-9-7-6--||---------10-9-7-6-||--2-1-0-1-3-2-0-2-2-1-0-1-2--0---||




Ваше мнение



Капча