SONG: SCIENCE
ALBUM TOXICITY
BAND: SYSTEM OF A DOWN
TRANSCRIBED BY: CESAR CHAPARRO G.
E-MAIL: [email protected]
Tuning: Double Drop D, Down 1 Step (C,G,C,F,A,C)
| KEY: |
| = - hold note(s) |
| h - hammer on |
| p - pull off |
| PM - palm mute |
| ^ - accented note |
| . - staccato note |
| / \ - slide up or down (shorter) |
| // \\ - slide up or down (longer) |
| / 3 \ - triplet |
| [] - defines Rhythm Figure # |
| - play rhythm figure # |
| u d - up & dn rt hand picking attacks |
|_________________________________________|
INTRO:
C |--10------------------------------10----------------------------------|
A |----------------------------------------------------------------------|
F |----------------------------------------------------------------------|
C |----------------------------------------------------------------------|
G |----------------------------------------------------------------------|
C |----0-0-000-0-0-000-0-0-000-0-0------0-0-000-0-0-000-0-0-000-0-0------|
PM . . . . . . . . .
C |-10------------10-------------10-------10-------10------10------------|
A |----------------------------------------------------------------------|
F |----------------------------------------------------------------------|
C |----------------------------------------------------------------------|
G |----------------------------------------------------------------------|
C |---0-0-000-0-0----0-0-000-0-0-----0-0------0-0------0-0------0-0------|
PM
RIFF 1
C |----------------------------------------------|------------------------|
A |----------------------------------------------|------------------------|
F |---7--------------7-------------7-------------|------------------------|
C |---7--------------7-------------7-------------|------------------------|
G |---5--------------5-------------5-------------|--------7--8--10--8--7--|
C |-----0-0-0-0-0-0----0-0-0-0-0-0---0-0-0-0-0-0-|--8--10-----------------|
RIFF 2A VERSE
C |----------------------------------------------------------------------|
A |----------------------------------------------------------------------|
F |----------------------------------------------------------------------|
C |----------------------------------------------------------------------|
G |--5-------------------------------5-----------------------------------|
C |----0-0-000-0-0-000-0-0-000-0-0------0-0-000-0-0-000-0-0-000-0-0------|
PM
Making two possibilities a reality, Predicting the future of things we all
know
C |----------------------------------------------------------------------|
A |----------------------------------------------------------------------|
F |----------------------------------------------------------------------|
C |----------------------------------------------------------------------|
G |-5--------------5--------------5--------5--------5-------5------------|
C |---0-0-000-0-0----0-0-000-0-0-----0-0------0-0------0-0------0-0------|
PM
Fighting off the diseased programming Of centuries, centuries, centuries,
centuries.

RIFF 2B VERSE
C |--10------------------------------10----------------------------------|
A |----------------------------------------------------------------------|
F |----------------------------------------------------------------------|
C |----------------------------------------------------------------------|
G |----------------------------------------------------------------------|
C |----0-0-000-0-0-000-0-0-000-0-0------0-0-000-0-0-000-0-0-000-0-0------|
PM . . . . . . . . .
C |-10-----------10--------------10-------10------10-------10------------|
A |----------------------------------------------------------------------|
F |----------------------------------------------------------------------|
C |----------------------------------------------------------------------|
G |----------------------------------------------------------------------|
C |---0-0-000-0-0----0-0-000-0-0-----0-0------0-0------0-0------0-0------|
PM
RIFF 3
C |----------------------------------------------------------------------|
A |----------------------------------------------------------------------|
F |----------------------------------------------------------------------|
C |--0-----------2---------3---------------------------------------------|
G |--0-----------2---------3--------------7---8---10--8--7---------------|
C |--0-----------2---------3------8--10----------------------------------|
Spirit-moves-through-all-things Spirit-moves-through-all-things
RIFF 4
C |----------------------------------------------------------------------|
A |------8--10-------8--10-------8---10-----13---11---10---11------------|
F |----7---------7----------7--------------------------------------------|
C |----------------------------------------------------------------------|
G |----------------------------------------------------------------------|
C |-0---------0----------0-----------------------------------------------|
RIFF 5
C |----------------------------------------------------------------------|
A |----------------------------------------------------------------------|
F |---7/10---12--10--9---9-9/10\9---5----7/10--10-10----15--12--14-14-14-|
C |----------------------------------------------------------------------|
G |---5/8----10---8--7---7-7/8-\7---3----5/8----8--8----13--10--12-12-12-|
C |-0---------------------------------0----------------------------------|
C |----------------------------------------------------------------------|
A |----------------------------------------------------------------------|
F |---7/10--10--10---17--15---14--14--14---7/10--10-10---15--12--14-14-14|
C |----------------------------------------------------------------------|
G |---5/8----8---8---15--13---12--12--12---5/8----8--8---13--10--12-12-12|
C |-0------------------------------------0-------------------------------|
2X
C |----------------------------------------------------------------------|
A |----------------------------------------------------------------------|
F |---7/10---12--10--9---9-9/10\9---5----7/10--10-10----15--12--14-14-14-|
C |----------------------------------------------------------------------|
G |---5/8----10---8--7---7-7/-8\7---3----5/-8---8--8----13--10--12-12-12-|
C |-0---------------------------------0----------------------------------|
C |----------------------------------------------|
A |----------------------------------------------|
F |--15--12---14--14--14----14--12---14--14--14--|
C |----------------------------------------------|
G |--13--10---12--12--12----13--10---12--12--12--|
C |----------------------------------------------|
RIFF 6
C |----------------------------------------------|------------------------|
A |----------------------------------------------|------------------------|
F |---7--------------9-------------10------------|------------------------|
C |---7--------------9-------------10------------|------------------------|
G |---5--------------7-------------8-------------|--------7--8--10--8--7--|
C |-----0-0-0-0-0-0----0-0-0-0-0-0---0-0-0-0-0-0-|--8--10-----------------|
Spirit-moves-through-all-things Spirit-moves-through-all-things
ORDER
INTRO
RIFF 1 2X
RIFF 2A
RIFF 2B
RIFF 1 2X
RIFF 2A
RIFF 1 2X
RIFF 3 2X
RIFF 4 3X
RIFF 5
RIFF 2B
RIFF 1 2X
RIFF 6 2X
RIFF 3 2X
END.




Ваше мнение



Капча