Artist : System Of A Down
Title : Roulette
Album : Steal This Album
Tab By : Jagdeep Singh
Email : [email protected]
Any Comments Send In My Email.
Cm D# A# C#
E||--------3----------3-----|-------6----------1-----|-------4----------4-----|
B||--------4----------4-----|-------8----------3-----|-------6----------6-----|
G||*--5----5--5----5--5-----|--8----8-----3----3-----|--6----6--6----6--6-----|
D||*--5-------5----5-----5--|--8-------8--3-------3--|--6-------6----6-----6--|
A||---3-------3----3-----3--|--6-------6--1-------1--|--4-------4----4-----4--|
E||-------------------------|------------------------|------------------------|
G# A# Cm D# A#
-------------------------||--------3----------3-----|-------6----------1-----|
-------4----------6------||--------4----------4-----|-------8----------3-----|
-------5----------7-----*||*--5----5--5----5--5-----|--8----8-----3----3-----|
--6----6-----8----8-----*||*--5-------5----5-----5--|--8-------8--3-------3--|
--6-------6--8-------8---||---3-------3----3-----3--|--6-------6--1-------1--|
--4-------4--6-------6---||-------------------------|------------------------|
C# G# A# Cm
-------4----------4-----|-------------------------||--------3----------3-----|
-------6----------6-----|-------4----------6------||--------4----------4-----|
--6----6--6----6--6-----|-------5----------7-----*||*--5----5--5----5--5-----|
--6-------6----6-----6--|--6----6-----8----8-----*||*--5-------5----5-----5--|
--4-------4----4-----4--|--6-------6--8-------8---||---3-------3----3-----3--|
------------------------|--4-------4--6-------6---||-------------------------|
G A# G# A#
------------------------|------------------------|-------------------------||
-------3----------3-----|-------6----------6-----|-------4----------6------||
-------4----------4-----|-------7----------7-----|-------5----------7-----*||
--5----5--5----5--5-----|--8----8--8----8--8-----|--6----6-----8----8-----*||
--5-------5----5-----5--|--8-------8----8-----8--|--6-------6--8-------8---||
--3-------3----3-----3--|--6-------6----6-----6--|--4-------4--6-------6---||
Cm D# A# C#
--------3----------3-----|-------6----------1-----|-------4----------4-----|
--------4----------4-----|-------8----------3-----|-------6----------6-----|
*--5----5--5----5--5-----|--8----8-----3----3-----|--6----6--6----6--6-----|
*--5-------5----5-----5--|--8-------8--3-------3--|--6-------6----6-----6--|
---3-------3----3-----3--|--6-------6--1-------1--|--4-------4----4-----4--|
-------------------------|------------------------|------------------------|
G# A# Cm D# A#
-------------------------||--------3----------3-----|-------6----------1-----|
-------4----------6------||--------4----------4-----|-------8----------3-----|
-------5----------7-----*||*--5----5--5----5--5-----|--8----8-----3----3-----|
--6----6-----8----8-----*||*--5-------5----5-----5--|--8-------8--3-------3--|
--6-------6--8-------8---||---3-------3----3-----3--|--6-------6--1-------1--|
--4-------4--6-------6---||-------------------------|------------------------|
C# G# A# Cm
-------4----------4-----|-------------------------||--------3----------3-----|
-------6----------6-----|-------4----------6------||--------4----------4-----|
--6----6--6----6--6-----|-------5----------7-----*||*--5----5--5----5--5-----|
--6-------6----6-----6--|--6----6-----8----8-----*||*--5-------5----5-----5--|
--4-------4----4-----4--|--6-------6--8-------8---||---3-------3----3-----3--|
------------------------|--4-------4--6-------6---||-------------------------|
G A# G# A# 3x
------------------------|------------------------|-------------------------||
-------3----------3-----|-------6----------6-----|-------4----------6------||
-------4----------4-----|-------7----------7-----|-------5----------7-----*||
--5----5--5----5--5-----|--8----8--8----8--8-----|--6----6-----8----8-----*||
--5-------5----5-----5--|--8-------8----8-----8--|--6-------6--8-------8---||
--3-------3----3-----3--|--6-------6----6-----6--|--4-------4--6-------6---||
Cm D# A# C#
--------3----------3-----|-------6----------1-----|-------4----------4-----|
--------4----------4-----|-------8----------3-----|-------6----------6-----|
*--5----5--5----5--5-----|--8----8-----3----3-----|--6----6--6----6--6-----|
*--5-------5----5-----5--|--8-------8--3-------3--|--6-------6----6-----6--|
---3-------3----3-----3--|--6-------6--1-------1--|--4-------4----4-----4--|
-------------------------|------------------------|------------------------|
G# A# Cm D# A#
------------------------|-------3----------3-----|-------6----------1-----|
-------4----------6-----|-------4----------4-----|-------8----------3-----|
-------5----------7-----|--5----5--5----5--5-----|--8----8-----3----3-----|
--6----6-----8----8-----|--5-------5----5-----5--|--8-------8--3-------3--|
--6-------6--8-------8--|--3-------3----3-----3--|--6-------6--1-------1--|
--4-------4--6-------6--|------------------------|------------------------|
C# G# A# Cm
-------4----------4-----|-------------------------||--------3----------3-----|
-------6----------6-----|-------4----------6------||--------4----------4-----|
--6----6--6----6--6-----|-------5----------7-----*||*--5----5--5----5--5-----|
--6-------6----6-----6--|--6----6-----8----8-----*||*--5-------5----5-----5--|
--4-------4----4-----4--|--6-------6--8-------8---||---3-------3----3-----3--|
------------------------|--4-------4--6-------6---||-------------------------|
G A# G# A#
------------------------|------------------------|-------------------------||
-------3----------3-----|-------6----------6-----|-------4----------6------||
-------4----------4-----|-------7----------7-----|-------5----------7-----*||
--5----5--5----5--5-----|--8----8--8----8--8-----|--6----6-----8----8-----*||
--5-------5----5-----5--|--8-------8----8-----8--|--6-------6--8-------8---||
--3-------3----3-----3--|--6-------6----6-----6--|--4-------4--6-------6---||
Cm G A#
--------3----------3-----|------------------------|------------------------|
--------4----------4-----|-------3----------3-----|-------6----------6-----|
*--5----5--5----5--5-----|-------4----------4-----|-------7----------7-----|
*--5-------5----5-----5--|--5----5--5----5--5-----|--8----8--8----8--8-----|
---3-------3----3-----3--|--5-------5----5-----5--|--8-------8----8-----8--|
-------------------------|--3-------3----3-----3--|--6-------6----6-----6--|
G# A# Cm D# A#
-------------------------||-------3----------3-----|-------6----------1-----|
-------4----------6------||-------4----------4-----|-------8----------3-----|
-------5----------7-----*||--5----5--5----5--5-----|--8----8-----3----3-----|
--6----6-----8----8-----*||--5-------5----5-----5--|--8-------8--3-------3--|
--6-------6--8-------8---||--3-------3----3-----3--|--6-------6--1-------1--|
--4-------4--6-------6---||------------------------|------------------------|
C# G# A# Cm
-------4----------4-----|------------------------||--------3----------3-----|
-------6----------6-----|-------4----------6-----||--------4----------4-----|
--6----6--6----6--6-----|-------5----------7-----||*--5----5--5----5--5-----|
--6-------6----6-----6--|--6----6-----8----8-----||*--5-------5----5-----5--|
--4-------4----4-----4--|--6-------6--8-------8--||---3-------3----3-----3--|
------------------------|--4-------4--6-------6--||-------------------------|
D# A# C# G# A#
-------6----------1-----|-------4----------4-----|-------------------------||
-------8----------3-----|-------6----------6-----|-------4----------6------||
--8----8-----3----3-----|--6----6--6----6--6-----|-------5----------7-----*||
--8-------8--3-------3--|--6-------6----6-----6--|--6----6-----8----8-----*||
--6-------6--1-------1--|--4-------4----4-----4--|--6-------6--8-------8---||
------------------------|------------------------|--4-------4--6-------6---||
Cm D# A# C#
-------3----------3-----|-------6----------1-----|-------4----------4-----|
-------4----------4-----|-------8----------3-----|-------6----------6-----|
--5----5--5----5--5-----|--8----8-----3----3-----|--6----6--6----6--6-----|
--5-------5----5-----5--|--8-------8--3-------3--|--6-------6----6-----6--|
--3-------3----3-----3--|--6-------6--1-------1--|--4-------4----4-----4--|
------------------------|------------------------|------------------------|
G# A#
------------------------|--3----------------||
-------4----------6-----|--4----------------||
-------5----------7-----|--5----------------||
--6----6-----8----8-----|--5----------------||
--6-------6--8-------8--|--3----------------||
--4-------4--6-------6--|-------------------||
The Solo,


||---8--------------8-10-|--11--------------10-11-|
||-----------------------|------------------------|
||*----------------------|------------------------|
||*----------------------|------------------------|
||-----------------------|------------------------|
||-----------------------|------------------------|

--13--------------10-11-|--13--11--10--8--10--11--10--8--|
------------------------|--------------------------------|
------------------------|--------------------------------|
------------------------|--------------------------------|
------------------------|--------------------------------|
------------------------|--------------------------------|

--8--------------------|---------------------------|---------------------|
---------8--8------8-9-|--11--9--8--6--8--9--8--6--|--6------------------|
-----------------------|---------------------------|---------------------|
-----------------------|---------------------------|---------8--8--------|
-----------------------|---------------------------|---------------------|
-----------------------|---------------------------|---------------------|

--4-----------------------||
--6--4/-3/-1--3--4--1-----||
-------------------------*|| Good Tab Right !
-------------------------*||
--------------------------||
--------------------------||




Ваше мнение



Капча