Here is another version for all who doesn't want to play this song with dropped C tuning.
Enjoy it!
Intro Repeat 4x
|----------------------------------------------------|
|---4-----4-----8------------------------------------|
|---------------------7-----10-----10-----5-----7----|
|----------------------------------------------------|
|-3---3-3---3/6--------------------------------------|
|-----------------3/6---6/9----9-9----3-4---4/6------|
Chorus Repeat 2x
|----------------------------------------------------|
|---4-----4------------------------------------------|
|---------------4-----4-----7-----7-----5-----7------|
|----------------------------------------------------|
|-3---3-3--------------------------------------------|
|-----------3-3---3-3---3-6---6-6---3-4---4-6---6----|
Verse Repeat 4x
|----------------------------------------------------|
|---4-----4-----8------------------------------------|
|---------------------7-----10-----10-----5-----7----|
|----------------------------------------------------|
|-3---3-3---3/6--------------------------------------|
|-----------------3/6---6/9----9-9----3-4---4/6------|

Chorus Repeat 4x
|----------------------------------------------------|
|---4-----4------------------------------------------|
|---------------4-----4-----7-----7-----5-----7------|
|----------------------------------------------------|
|-3---3-3--------------------------------------------|
|-----------3-3---3-3---3-6---6-6---3-4---4-6---6----|

Solo Repeat 2x (Verse part in background)
|-8--8--10--11--10--11--13--10--11--13--11--10--8--10--11--10--8--8----|
|(8)(8)(10)(11)--------(13)----(11)(13)(11)(10)(8)(10)(11)(10)(8)(8)---|
|----------------------------------------------------------------------|
|----------------------------------------------------------------------|
|----------------------------------------------------------------------|
|----------------------------------------------------------------------|

|------------------------------------------------4/64--4--3--3--1--1--|
|-8--8--8--9--11--9--8--6--8--9--8--6--6---------4/64--4--3--3--1--1--|
|(8)(8)(8)(9)(11)(9)(8)(6)(8)(9)(8)(6)(6)---3--3-----------------------|
|------------------------------------------(3)(3)----------------------|
|----------------------------------------------------------------------|
|----------------------------------------------------------------------|
Try to add the notes of the brackets into the second playing of the solo.
Although I think that the first form of playing sounds nice just the same as the other form.

Chorus Repeat 4x
|----------------------------------------------------|
|---4-----4------------------------------------------|
|---------------4-----4-----7-----7-----5-----7------|
|----------------------------------------------------|
|-3---3-3--------------------------------------------|
|-----------3-3---3-3---3-6---6-6---3-4---4-6---6----|

Verse Repeat 4x
|-----------------------------------------------------3---|
|---4-----4-----8-------------------------------------4---|
|---------------------7-----10-----10-----5-----7-----5---|
|-----------------------------------------------------5---|
|-3---3-3---3/6---------------------------------------3---|
|-----------------3/6---6/9----9-9----3-4---4/6---6-------|

tabbed by ShadowFighter




Ваше мнение



Капча