#----------------------------------PLEASE NOTE--------------------------------#
#This file is the author's own work and represents their interpretation of the#
#song. You may only use this file for private study, scholarship, or research.#
#-----------------------------------------------------------------------------#
Author/Artist: System Of A Down
Title: Roulette
Album: STEAL THIS ALBUM!
Transcribed by: Nathaniel Nelson
Email: [email protected]

Well, here you go. Yeah, yeah, I know that Daron ALWAYS
uses Drop-C tuning, but this is the way I play it. It sounds SPOT-
ON! Oh, yeah this tab is in Standard Tuning (that would help a bit).
Any hate, love, or, god-forbid one of you guys should send me a
suggestion or two.... they all can be sent to [email protected]!
Also, I haven't figured out that little strumming part after the solo yet, so
any and all help would be appreciated! (Remember, it's in Standard!)

------------------------------------------------------------------------------
----4--------4-------8-------3-------6--------6-------------------------------
-------------------------------------------------------5-------7--------------
------------------------------------------------------------------------------
-3-----3--3-----3/6-----0h1-----1/4-----4--4-----4----------------------------
----------------------------------------------------4-----4/6-----6-----------
INTRO/VERSE

------------------------------------------------------------------------------
----4--------4----------------------------------------------------------------
----------------------4--------4-------7--------7--------5--------7-----------
------------------------------------------------------------------------------
-3-----3--3-----3-------------------------------------------------------------
-------------------3-----3--3-----3/6-----6--6-----6--4-----4--6-----6--------
CHORUS

-8--8h10-11--10h11-13--10h11-13-11-10-8-10-11--10--8--8-----------------------
------------------------------------------------------------------------------
------------------------------------------------------------------------------
------------------------------------------------------------------------------
------------------------------------------------------------------------------
------------------------------------------------------------------------------
SOLO

------------------------------------------------------------------------------
------------------------------------------------------------------------------
-----8-8--8h9--11--9--8--6--8--9--8--6----------------------------------------
------------------------------------------------------------------------------
------------------------------------------------------------------------------
------------------------------------------------------------------------------
SOLO CONTINUED




Ваше мнение



Капча