DROP D TUNING YA'LL HAVE FUN KEEP ROCKIN! --- Tabbed by TONY J. (T-$)

:|*-----------------------------|----------------------------- *3|
:|*---4-----4-------8--------3--|---6-----6-----------------3- *||
:| -----------------------------|-----------------5----------- ||
:| -----------------------------|----------------------------- ||
:| /3---3-3---3-/-6----6-1---1-|/4----4-4----4----------/1---1 ||
:| -----------------------------|---------------6---6--------- ||

=============================================================================

:|*-------------------------|--------------------------- *1|
:|*---4-----4---------------|---3-----3--------------3-- *||
:| -----------------4----4--|-----------------5--------- ||
:| -------------------------|--------------------------- ||
:| /3---3-3---3------------|/1---1-1---1--------/1---1 ||
:| ---------------5--5-5---5|---------------6---6------- ||

=============================================================================

:|*-----------------------------|----------------------------- *3|
:|*---4-----4-------8--------3--|---6-----6----------------3-- *||
:| -----------------------------|-----------------5----------- ||
:| -----------------------------|----------------------------- ||
:| /3---3-3---3-/-6----6-1---1-| /4---4-4----4----------/1---1 ||
:| -----------------------------|---------------6---6--------- ||

=============================================================================

:|*-------------------------|--------------------------- *1|
:|*---4-----4---------------|---3-----3--------------3-- *||
:| -----------------4----4--|-----------------5--------- ||
:| -------------------------|--------------------------- ||
:| /3---3-3---3------------|/1---1-1---1--------/1---1 ||
:| ---------------5--5-5---5|---------------6---6------- ||

=============================================================================

:|*---------------------|-------------------------|
:|*-------4-------4-----|-------8---------3-------|
:| ---------------------|-------------------------|
:| ---------------------|-------------------------|
:| /-3------3---3----3--|/6-------6-1------1-----|
:| ---------------------|-------------------------|

:|*-8-^------------8-10-|-11-^---------------10-11|
:|*---------------------|-------------------------|
:| ---------------------|-------------------------|
:| ---------------------|-------------------------|
:| ---------------------|-------------------------|
:| ---------------------|-------------------------|

=============================================================================

:------------------------|--------------------------|
:-------6-------6--------|--------------------3-----|
:------------------------|------5-------------------|
:------------------------|--------------------------|
:/-4-------4---4-----4---|-----------/-1--------1--|
:------------------------|--6------6----------------|

:-13-^--------------10-11|-13-11-10--8--10-11-10--8-|
:------------------------|--------------------------|
:------------------------|--------------------------|
:------------------------|--------------------------|
:------------------------|--------------------------|
:------------------------|--------------------------|

=============================================================================

:|*---------------------|-------------------------|
:|*-------4-------4-----|-------8---------3-------|
:| ---------------------|-------------------------|
:| ---------------------|-------------------------|
:| /-3------3---3----3--|/6-------6-1------1-----|
:| ---------------------|-------------------------|

:--8--------------------|--------------------------|
:---------8--8-----8--9-|-11--9--8--6---8--9--8--6-|
:-----------------------|--------------------------|
:-----------------------|--------------------------|
:-----------------------|--------------------------|
:-----------------------|--------------------------|

=============================================================================

:------------------------|--------------------------|
:-------6-------6--------|--------------------3-----|
:------------------------|------5-------------------|
:------------------------|--------------------------|
:/-4-------4---4-----4---|-----------/-1--------1--|
:------------------------|--6------6----------------|

:--------------------|----------------------*1|
:--6-----------------|--5-4-4-3--3-1-1---*||
:---------3-3--------|--6-5-5-3--3-1-1--- ||
:--------------------|---------------------- ||
:--------------------|---------------------- ||
:--------------------|---------------------- ||

=============================================================================

:|*-------------------------|--------------------------- *1|
:|*---4-----4---------------|---3-----3--------------3-- *||
:| -----------------4----4--|-----------------5--------- ||
:| -------------------------|--------------------------- ||
:| /3---3-3---3------------|/1---1-1---1--------/1---1 ||
:| ---------------5--5-5---5|---------------6---6------- ||

=============================================================================

:|*-----------------------------|----------------------------- *3|
:|*---4-----4-------8--------3--|---6-----6-----------------3- *||
:| -----------------------------|-----------------5----------- ||
:| -----------------------------|----------------------------- ||
:| /3---3-3---3-/-6----6-1---1-|/4----4-4----4----------/1---1 ||
:| -----------------------------|---------------6---6--------- ||

=============================================================================

:-------------------|
:------3------------|
:----5--------------|
:--5----------------|
:3------------------|
:-------------------|




Ваше мнение



Капча