Transcribed by:Brad Chamberlain
Title:"Prison"
Album:Toxicity(2001)
E-mail:[email protected]

This song is pretty awesome, and real heavy. I think it is
hilarious how they talk about something political as
a Prison, then go to Bounce, a pogo stick. Anyways, these
guys are AWESOME!

Tuning:Drop D, down 1 whole step

Intro:

|-------------------------------------------|
|-------------------------------------------|
|-------------------------------------------|
|-------------------------------------------|
|-0------0-1-3-1-0-1-3-1-0-1-3-1-0--8-8-8-8-|
|-0------0-1-3-1-0-1-3-1-0-1-3-1-0--8-8-8-8-|

|--------------------------------------|
|--------------------------------------|
|--------------------------------------|
|--------------------------------------|
|-0-1-3-1-0-1-3-1-0-1-3-1-0-1--8-8-8-8-|
|-0-1-3-1-0-1-3-1-0-1-3-1-0-1--8-8-8-8-|

|---------------------------------------------------------|
|---------------------------------------------------------|
|---------------------------------------------------------|
|---------------------------------------------------------|
|-8-8-8-8-0-1-0-1-0-1-0-1-0-0-0-1-0-1-0-1-0-1-0-1-8-8-8-8-|
|-8-8-8-8-0-1-0-1-0-1-0-1-0-0-0-1-0-1-0-1-0-1-0-1-8-8-8-8-|

|-------------------------------------------|
|-------------------------------------------|
|-------------------------------------------|
|-------------------------------------------|
|-0-1-3-1-0-1-3-1-0-1-3-1-0-1-3-1-0-8-8-8-8-|
|-0-1-3-1-0-1-3-1-0-1-3-1-0-1-3-1-0-8-8-8-8-|

|---------------------------------------------|
|---------------------------------------------|
|---------------------------------------------|
|---------------------------------------------|
|-0-1-0-1-0-1-0-0-0-1-0-1-0-1-0-1-0-1-8-8-8-8-|
|-0-1-0-1-0-1-0-0-0-1-0-1-0-1-0-1-0-1-8-8-8-8-|

Verse:(with harmonics)

|---------------------|
|---------------------|
|----3-----4-----3----| Play this a few times
|-1-----1-----1-----1-|
|---------------------|
|---------------------|

Chorus:

|------------------------------------------------------|
|------------------------------------------------------|
|------------------------------------------------------|
|------------------------------------------------------| Play a few times also
|-0-1-0-1-0-1-0-1-0-1-0-0-1-0-1-0-1-0-1-0-1----8-8-8-8-|
|-0-1-0-1-0-1-0-1-0-1-0-0-1-0-1-0-1-0-1-0-1----8-8-8-8-|

Little Interlude:

|---------------------------------|
|---------------------------------|
|---------------------------------|
|---------------------------------| This is at the end, close to it.
|-0-0--0-0-0--0-0-0--0-0-0--0-0-0-|
|-0-0--0-0-0--0-0-0--0-0-0--0-0-0-|

Then play chorus, and verse, and so on.




Ваше мнение



Капча