Track 1 - Prison Song
Artist: System Of A Down
Album: Toxicity (2001)

Tuning (low to high): C-G-C-F-A-D
v = Vibrato - The string is vibrated by rapdily bending and
releasing the note with the fretting hand

D|--------------------------------------|
A|--------------------------------------|
F|--------------------------------------|
C|------------------------------3-3-3-3-|
G|-0--1-3-1-0-1-3-1-0-1-3-1-0-1-1-1-1-1-|
C|-0--1-3-1-0-1-3-1-0-1-3-1-0-1---------|

D|---------------------------------|
A|---------------------------------|
F|---------------------------------|
C|-------------------------3-3-3-3-|
G|-0-1-3-1-0-1-3-1-0-1-3-1-1-1-1-1-|
C|-0-1-3-1-0-1-3-1-0-1-3-1---------|

D|---------------------------------------------------------|
A|---------------------------------------------------------|
F|---------------------------------------------------------|
C|-------------------------------------------------3-3-3-3-|
G|-0-1-0-1-0-1-0-0-1-0-1-0-1-0-0-1-0-1-0-1-0-0-1---1-1-1-1-|
C|-0-1-0-1-0-1-0-0-1-0-1-0-1-0-0-1-0-1-0-1-0-0-1-0---------|

D|--------------------------------------|
A|--------------------------------------|
F|--------------------------------------|
C|------------------------------3-3-3-3-|
G|-0--1-3-1-0-1-3-1-0-1-3-1-0-1-1-1-1-1-|
C|-0--1-3-1-0-1-3-1-0-1-3-1-0-1---------|

D|---------------------------| |---------------------|
A|---------------------------| |---------------------|
F|---------------------------| |---------------------|
C|----8--------8--------8----| x3 then... |----8-----8-----8----|
G|-6-----6--6-----6--6-----6-| |-6-----6-----6-----6-|
C|---------------------------| |---------------------|

D|---------------------------------------------------------------|
A|----------3--------3-----2--------3-----3----------------------|
F|-------------3--------------2-----3--3-----3--------------2----|
C|-------3--------3--------------2--3-----------3--------2-----2-|
G|-0-1-0-1--------------0-----------1--------------1--0----------|
C|-0-1-0---------------------------------------------------------|

D|------------------------------------------------------|
A|------------------------------------------------------|
F|------------------------------------------------------|
C|----------------------------------------------3-3-3-3-|
G|----------------------------------------------1-1-1-1-|
C|-0--0--0--0--0--0--0--0--0--0--0--0--0--0--0----------|

D|-------------------------------------------------|
A|-------------------------------------------------|
F|-------------------------------------------------|
C|----------------------------------3-3-3-3------3-|
G|-0--0--0--0--0--0--0--0--0--0--0--1-1-1-1------1-|
C|-0--0--0--0--0--0--0--0--0--0--0-----------------|

D|-------------------------1v-|
A|-3--------3-----2--------3v-|
F|----3--------------2-----2v-|
C|-------3--------------2--0v-|
G|-------------0--------------|
C|----------------------------|




Ваше мнение



Капча