P.L.U.C.K.
SOAD
Tabbed by [email protected]
18/1/03
Tuning: c g c f a d

This is without a shadow of a doubt SOAD's best song ever, it is raw emotion
mixed with pure power. This tab comes from the book and has the guitar mixed
mixed with transcribed bass so you're busy playing for the whole song so here
it goes, the only correct version of P.L.U.C.K.

INTRO
Gtr1(dist)
Fill 1 Gtr1:Fill 1 x4
pm..................... (x4)Gtr2 (x4)
-0-0-0-0-0-0-0-0-0-0-0-0-0-0-0-0-|----------------------------------------|
---------------------------------|----------------------------------------|
---------------------------------|----------------------------------------|
---------------------------------|----------------------------------------|
---------------------------------|----------------------------------------|
---------------------------------|-2-2-3-3-2--2-2-3-3-2--2--3--2-2-3-3-2--|
End Fill 1

Gtr2 tacet ____________________________________
Gtr3 (dist) |1,2,3 |4
pm..................................................................
---------------------------------|----------------------|-----------|
---------------------------------|----------------------|-----------|
---------------------------------|----------------------|-----------|
---------------------------------|----------------------|-----------|
---------------------------------|----------------------|-----------|
-2-2-3-3-2-2-2-2-3-3-2-2-2-2-3-3-|2-2-3-3-0--0--0-0-0-0-|-2-2-3-3-2-|
Elimination.
Gtrs1+3
RhyFig1
pm....... ........ ........
------------------------------|------------|
------------------------------|------------|
------------------------------|------------|
----------2----------2--2--3--|---------2--|
----------2----------2--2--3--|---------2--|
--2-2-3-3-2--2-2-3-3-2--2--3--|-2-2-3-3-2--|EndRhyFig1
Die

Gtr1
--0-0--0--0--0-|-0-0--0--0--0-|-0-0--0--0--0-|-0-0--0--0--0-|
--0-0--0--0--0-|-0-0--0--0--0-|-6-0--0--0--0-|-0-0--0--0--0-|
--4-4--4--4--4-|-3-4--4--4--0-|-0-0--4--4--4-|-3-4--4--4--4-|
---------------|--------------|--------------|--------------|
---------------|--------------|--------------|--------------|
---------------|--------------|--------------|--------------|
Well a
VERSE
RiffA (NOTE:All the ghost notes are palm muted)
-------------------|---------------------|----------------------|
-------------------|---------------------|----------------------|
-7/9---9---9---9-9-|-9/13---13---13---13-|-13/15---15---15---10-|
-x/x---x---x---x-x-|-x/-x----x----x----x-|--x/-x----x----x----x-|
-5/7---7---7---7-7-|-7/11---11---11---11-|-11/13---13---13----8-|
----(0)-(0)-(0)----|-----(0)--(0)--(0)---|------(0)--(0)--(0)---|
whole race, Genocide, taken away all

---------------------|-----------------|------------------------|
---------------------|-----------------|------------------------|
-10/13---13---13---7-|-7/9---9---9---9-|-9/13---13---13---13-13-|
--x/-x----x----x---x-|-x/x---x---x---x-|-x/-x----x----x----x--x-|
--8/11---11---11---5-|-5/7---7---7---7-|-7/11---11---11---11-11-|
------(0)--(0)--(0)--|----(0)-(0)-(0)--|-----(0)--(0)--(0)------|
of our pride. A whole race, Genocide,

-----------------------|-----------------------------------------|
-----------------------|-----------------------------------------|
-13/15---15---15----10-|-10/13--13-13-13-13-13-13-13-13-13-13-13|
--x/-x----x----x-----x-|--x/-x---x--x--x--x--x--x--x--x--x--x--x|
-11/13---13---13-----8-|--8/11--11-11-11-11-11-11-11-11-11-11-11|
------(0)--(0)---(0)---|-----------------------------------------|End RiffA
taken away... (watch them all fall down!)

CHORUS
Gtrs1+3 RhyFig2
pm....... .........
----------------------------|
----------------------------|
----------------------------|
-2----------0--2----------0-|
-2----------0--2----------0-|
-2--2-2-2-2-0--2--2-2-2-2-0-|End RhyFig2
Revolution, the

Gtrs1+3: RhyFig2 x7
only solution, the armed response of an entire nation. Revolution, the
only solution. We've taken all your shit now it's time for restitution.

VERSE
Gtr1: RiffA, simile
Recognition, Restoration, Reparation.
Recognition, Restoration, Reparation. (Watch them all fall down)

CHORUS
Gtrs1+3:RhyFig2 x6
Revolution, the only solution, the armed response of an
entire nation. Revolution, the only solution. We've

Gtrs1+3 RhyFill1
pm....... ......... ..........
-----------------------------|------------------------|
-----------------------------|------------------------|
-----------------------------|------------------------|
-2----------0--2----------0--|0--3--3--3--------------|
-2----------0--2----------0--|0--5--5--5--5--5--5--0--|
-2--2-2-2-2-0--2--2-2-2-2-0--|0-----------------------|End RhyFill1
taken all your shit now it's time for restitution.

BRIDGE
RhyFig3
--------------------------|----------------------|---------------------------|
--------------------------|----------------------|---------------------------|
----5-5-5--5--5--7--5-----|----------------------|---------------------------|
-2--x-x-x--x--x--x--x-----|-5-----------5-----5--|----3---3------3-----3-----|
-2--3-3-3--3--3--5--3--0--|-5-----------5-----5--|----3---3------3-----3-----|
-2------------------------|-5-----------5-----5--|----3---3------3-----3-----|
End RhyFig3
The plan was mast-ered and called Geno-
cide. You took all the children and then we died
The few that remained were never found

Gtrs1+3 pm....... ........ ......... ........ (x3)
-------------|------------|-----------------------------|--------------|
-------------|------------|-----------------------------|--------------|
-------------|------------|-----------------------------|--------------|
--5---5---5--|--3-3-3-3---|---------2----------2--2--3--|---------2----|
--5---5---5--|--3-3-3-3---|---------2----------2--2--3--|---------2----|
--5---5---5--|--3-3-3-3---|-2-2-3-3-2--2-2-3-3-2--2--3--|-2-2-3-3-2----|
Down!

pm...... ......... ........ .................
------------------------------|-----------------------------|
------------------------------|-----------------------------|
------------------------------|-----------------------------|
---------2-----------2--2--3--|---------2-------------------|
---------2-----------2--2--3--|---------2-------------------|
-2-2-3-3-2--2-2-3-3--2--2--3--|-2-2-3-3-2--2-2-2-2-2-2-5--3-|
Yeah! Walk

Gtrs1+3:RhyFig1,1st meas. x8
down! Walk down.

Gtr1
RiffA
-------------------|------------------------|----------------------|
-------------------|------------------------|----------------------|
-7/9---9---9---9-9-|-9/13---13---13---13-13-|-13/15---15---15---10-|
-x/x---x---x---x-x-|-x--x----x----x----x--x-|--x/-x----x----x----x-|
-5/7---7---7---7-7-|-7/11---11---11---11-11-|-11/13---13---13----8-|
----(0)-(0)-(0)----|-----(0)--(0)--(0)------|-------0----0----0----|
steady gliss
-------------------------|
-------------------------|
-10/13-13-13-------------|
--x/-x--x--x-------------|
--8/11-11-11--xx-------|
--------------xx-------|

CHORUS
Gtrs1+3: RhyFig2 x7
Revolution, the only solution, the armed responce of an entire nation.
Revolution, the only. We've taken all your shit now it's time for restitution.

OUTRO
The plan was mastered and called geno
cide. You took all the children and then we died.
The few that remained were never found.

Gtrs1+3
-----------------------|-----------------------|-----------|---------|
-----------------------|-----------------------|-----------|---------|
-----------------------|-----------------------|-----------|---------|
---5---------5------5--|--3--3-----3----3------|-2---------|---------|
---5---------5------5--|--3--3-----3----3------|-2---------|---------|
---5---------5------5--|--3--3-----3----3--0---|-2---------|---------|
All in a system. Down

That's it. Now everyone can play this song. I hope you can understand this, I
tried to make it as simple as possible. Enjoy.
fin


Ваше мнение



Капча